-
 
Guitar Pro
 
 
     
 
 

, , ,



- -

 

ZaG studio

 

 

E||--3----3----3---------|--3----3----3----3----|--3-----------------|

B||--0--------------0----|----------------------|------------1-------|

G||--0-------------------|----------------------|-------2---------2--|

D||----------------------|----------------------|-------2---------2--|

A||----------------------|--2-------------------|--0-----------------|

E||--0-------------------|----------------------|--------------------|

 

 

----------------------|-------2----2----2----|--0--------------3----|

------------1---------|--1----0--------------|-------4----0---------|

-------2--------------|--2----2--------------|----------------------|

--2-------------------|----------------------|-------4--------------|

-----------------0----|-------2--------------|----------------------|

----------------------|----------------------|----------------------|

 

 

--2----0--------------|----------------------|------------3----3----|

-----------------2----|-------2---------2----|-------0----0---------|

------------2---------|-------2---------2----|-------2----0---------|

----------------------|--2-------------------|-------1--------------|

-------0--------------|------------0---------|--2-------------------|

----------------------|----------------------|------------0---------|

 

 

--3----3----3----3----|--3----3----3---------|----------------------|

----------------------|----------------------|--1-------------------|

----------------------|-----------------2----|-------2---------2----|

----------------------|-----------------2----|-------2----2---------|

------------2---------|------------0---------|----------------------|

----------------------|----------------------|----------------------|

 

 

-----------------2----|--2----2----0---------|-------3----2----0----|

--1---------1----0----|-----------------4----|--0-------------------|

------------2----2----|----------------------|----------------------|

----------------------|-----------------4----|----------------------|

-------0---------2----|----------------------|-----------------0----|

----------------------|----------------------|----------------------|

 

 

----------------------|-----------------7----|--7----5----3----2----|

-------2---------2----|-------2----0----0----|----------------------|

--2--------------2----|-------2----2----0----|----------------------|

------------2---------|------------1---------|----------------------|

----------------------|--0---------2---------|-----------------2----|

----------------------|-----------------0----|----------------------|

 

 

--0---------3----2----|--0----2----3----7----|--7----5----3----2----|

-------0--------------|-----------------0----|----------------------|

-------0--------------|-----------------0----|----------------------|

----------------------|----------------------|----------------------|

----------------------|----------------------|----------------------|

-----------------3----|-----------------0----|-----------------3----|

 

 

--0--------------2----|--0----2----3----8----|-----------------8----|

------------0----0----|----------------------|--5-------------------|

------------0----0----|----------------------|--5---------5---------|

----------------------|----------------------|----------------------|

-------2--------------|-----------------0----|-------7---------0----|

-----------------0----|----------------------|----------------------|

 

 

--8----7----5----3----|--2---------5----5----|--3----2----3----0----|

----------------------|-------1---------0----|----------------------|

----------------------|-------2---------0----|----------------------|

----------------------|----------------------|----------------------|

-----------------0----|----------------------|-----------------3----|

----------------------|-----------------0----|----------------------|

 

 

------------3----2----|--0----3----2----0----|----------------------|

--1--------------1----|----------------------|--0---------0----2----|

--0--------------2----|----------------------|-------0---------3----|

----------------------|----------------------|-------2---------2----|

-------2---------0----|-----------------2----|----------------------|

----------------------|----------------------|-----------------2----|

 

 

-----------------0----|-----------------0----|------||

--2----4----4---------|--0---------0----0----|------||

-------2--------------|--0---------0----0----|------||

-------4--------------|----------------------|------||

-------2--------------|-------2--------------|------||

-----------------0----|-----------------0----|------||

 

 

 

 

...

 
 
 
     
 
 
| | | | | | | | | |
 

.net     , ,

 
24.12.2011
06.03.2004
 
 
    Internet Map Rambler's Top100

. . . .

, , ZaG

zagstudio