-
 
Guitar Pro
 
 
     
 
 

, , ,



-

 

E||---------------|--------3h2-3-----0-----------|

B||------------0--|--0------------0-----------0--|

G||---------------|-----0------------------0-----|

D||---------------|---------------------2--------|

A||---------------|------------------------------|

E||---------------|--0---------------------------|

 

 

--------5h3-5-----------------|--------5h3-5--------2--------|

--0---------------4-----------|--0---------------4-----------|

-----2---------4--------2--4--|-----2---------4--------2--4--|

------------------------------|------------------------------|

--2------------------2--------|--2---------------------------|

------------------------------|------------------------------|

 

 

--8--------7--------------7--|--8--8--8--8--7--8--|--12-------------10/-5--|

--------0-----0--------------|-----------5--------|----------10------------|

-----0-----------0-----0-----|-----------0--------|------11----------------|

-----------------------------|--------------------|--0-----------0---------|

-----------------------------|--0--------0--------|------------------------|

--0-----------------0--------|--------------------|------------------------|

 

 

--7--------------10--||---10---------8---------|--------------------8--|

--------0------------||----------10-----10-----|---------10------------|

-----7---------------||*------9-------------9--|------9----------9-----|

--5-----------6------||*-----------------------|--12---------10--------|

---------------------||---0--------------------|-----------------------|

-----------0---------||------------------------|-----------------------|

 

 

--8--------7--------|------------------7--|--7-----------5h-3--2--------|

--------8-----8-----|---------8-----------|-----------5-----------0--0--|

-----9-----------9--|------9--------9-----|--------5--------------------|

--------------------|--10--------9--------|-----4-----------------------|

--------------------|---------------------|--------------------2--------|

--0-----------------|---------------------|-----------------------------|

 

 

--5--------3--------------10---||--2--------0--------0----||

--------0-----0----------------||--------0-----0-----0----||

-----0-----------0------------*||-----0-----------0--0----||

-----------------------6------*||-------------------------||

-------------------------------||-------------------------||

--0-----------------0----------||--0-----------------0----||

 

 

 

 

...

 
 
 
     
 
 
| | | | | | | | | |
 

.net     , ,

 
24.12.2011
06.03.2004
 
 
    Internet Map Rambler's Top100

. . . .

, , ZaG

zagstudio