-
 
Guitar Pro
 
 
     
 
 

, , ,



- The patriotic song

 

 

M.Tariverdiyev (Russia)

Classical Guitar

 

 

 

E||--0--0--0--0--0--0--0--0--|--------------0--0--0--0--|

B||--1--1--1--1--0--0--0--0--|--3--3--3--3--0--0--0--0--|

G||--2--2--2--2--0--0--0--0--|--2--2--2--2--1--1--1--1--|

D||--------------------------|--3--3--3--3--------------|

A||--0-----------------------|--------------------------|

E||--------------3-----------|--1-----------0-----------|

 

 

--8---------------------7h5-|--7------------------------|

-------5-5------------------|---------------------------|

-----5---5--5--5--5--5------|-------8-8-----------------|

-----7---7--7--7--7--7------|-----7---7--7--7--7--7--7--|

--0-------------------------|-----9---9--9--9--9--9--9--|

----------------------------|--7------------------------|

 

 

--7---------------------5h4-|--5------------------------|

-------3-3------------------|-------2-2-----------------|

-----2---2--2--1--1--1------|-----0---0--0--0--0--0--0--|

--0--3---3--3--2--2--2------|-----2---2--2--2--2--2--2--|

----------------------------|--0------------------------|

----------------------------|---------------------------|

 

 

--5---------------------5h4-|--5------------------------0-|

-------1-1------------------|-------0-0-------------0-3---|

-----2---2--2--2--2--2------|-----2---2--2--2--2--2-------|

-----2---2--2--2--2--2------|--0--3---3--3--3--3--3-------|

--0-------------------------|-----------------------------|

----------------------------|-----------------------------|

 

 

---------0-----------------|--0------------------------|

--6----6----3--3--1-----1--|--0--3-1-0-----1-----0-----|

--7----7-5--4--4--2-----2--|--2---------2-----1-----1--|

-----6---------------2-----|--2---------------2-----2--|

---------------0-----------|---------------------------|

--0------------------------|---------------0-----0-----|

 

 

------------------------3-5-|--6------3-5-6-----6--5--3--|

--------------------5-6-----|-----5-6-----------8--6--5--|

--2-----------------3-------|-----3----------------------|

-----2--2--2--2--2--5-------|-----5----------------------|

-----3--3--3--3--3----------|----------------0-----------|

--5-----------------3-------|-----3----------------------|

 

 

--6--5h3-5-------0-1-3-5----0-|--1-3-5-----5--3--1--5--3--|

--6---------6--3----------3---|------------6--5--3--6--5--|

------------7--2----------2---|---------------------------|

--0------------3----------3---|---------------------------|

---------------1--------------|---------------------3-----|

--------------------------1---|---------3-----------------|

 

 

-----1--1--0---0---------3-5-|--6------3-5-6-----6--5--3--|

--------0----3----0--5-6-----|-----5-6-----------8--6--5--|

--------1---------1--3-------|-----3----------------------|

---------------------5-------|-----5----------------------|

-----------------------------|----------------0-----------|

--0------------------3-------|-----3----------------------|

 

 

--6--5h3-5--5--8--7--------|--8--7--------8--7---8--7---|

--6------------7-----------|--7-----------6----6------6-|

---------------8--------8--|--8--------8--7-------------|

--0------------------7-----|--------7-----0-------------|

---------------------9-----|--------9-------------------|

---------------7-----------|--7-------------------------|

 

 

--8-----------7-----------|--8---------------------7h5-|

--------------------------|-------5-5------------------|

-----7--7--7-----7--7--7--|-----5---5--5--5--5--5------|

-----6--6--6-----6--6--6--|-----7---7--7--7--7--7------|

-----7--7--7-----7--7--7--|--0-------------------------|

--0-----------------------|----------------------------|

 

 

--7------------------------|--7---------------------5h4-|

---------------------------|-------3-3------------------|

-------8-8-----------------|-----2---2--2--1--1--1------|

-----7---7--7--7--7--7--7--|--0--3---3--3--2--2--2------|

-----9---9--9--9--9--9--9--|----------------------------|

--7------------------------|----------------------------|

 

 

--5------------------------|--5---------------------5h4-|

-------2-2-----------------|-------1-1------------------|

-----0---0--0--0--0--0--0--|-----2---2--2--2--2--2------|

-----2---2--2--2--2--2--2--|-----2---2--2--2--2--2------|

--0------------------------|--0-------------------------|

---------------------------|----------------------------|

 

 

--5------------------------0-|---------0-----------------|

-------0-0-------------0-3---|--6----6----3--3--1-----1--|

-----2---2--2--2--2--2-------|--7----7-5--4--4--2-----2--|

--0--3---3--3--3--3--3-------|-----6---------------2-----|

-----------------------------|---------------0-----------|

-----------------------------|--0------------------------|

 

 

--0------------------------|--0--0--0--0--0--0--0--0--|

--0--3-1-0-----1-----0-----|--1--1--1--1--0--0--0--0--|

--2---------2-----1-----1--|--2--2--2--2--0--0--0--0--|

--2---------------2-----2--|--------------------------|

---------------------------|--0-----------------------|

---------------0-----0-----|--------------0-----------|

 

 

--------------0--0--0--0--|--0--0--0--0--0--0--0--0--|

--3--3--3--3--0--0--0--0--|--1--1--1--1--0--0--0--0--|

--2--2--2--2--1--1--1--1--|--2--2--2--2--0--0--0--0--|

--3--3--3--3--------------|--------------------------|

--------------------------|--0-----------------------|

--1-----------0-----------|--------------0-----------|

 

 

--------------0--0--0----||

--3--3--3--3--0--0--0----||

--2--2--2--2--1--1--1----||

--3--3--3--3-------------||

-------------------------||

--1-----------0----------||

 

 

 

 

...

 
 
 
     
 
 
| | | | | | | | | |
 

.net     , ,

 
24.12.2011
06.03.2004
 
 
    Internet Map Rambler's Top100

. . . .

, , ZaG

zagstudio