Аккорды для всех - сайт народных аккордов
 
Аккорды и тексты песен
Guitar Pro табулатуры
Уроки игры на гитаре
Таблица аккордов
Бесплатные программы для музыкантов
Фотографии музыкантов
Видеоклипы
Каталог ссылок
Обратная связь
На главную страницу
 
 
     
 
 

Аккорды, песни, текст, табулатура



Hendrix Jimi - Burning Desire


E|----------------------6-----6----6-----6---------------------|
B|----------------------6-----6----6-----6---------------------|
G|--------5(7)5---------4-----4----4-----4------5(7)5--5-3~----|
D|-------------5-5-3~---5-----5----5-----5-----------5---------|
A|-15-3-5----------------------------------2-3-----------------|
E|-13-1-3-------------3---3-3---3----3-3-----------------------|

E|-6--6-6---6--------------------------------------------------|
B|-6--6-6---6--------------------------------------------------|
G|-4--4-4---4-7-7-7-7-7-7-7-7-7-6-6-6-6-5-5-4-4-3-3-3-3-3-3-3-3|
D|-5--5-5---5--------------------------------------------------|
A|------------5-5-5-5-5-5-5-5-5-4-4-4-4-3-3-2-2-1-1-1-1-1-1-1-1|
E|3-33-3-3-3---------------------------------------------------|

E|-------------------------------------------------------------|
B|-------------------------------------------------------------|
G|-4-4-4-5-5-6-6-7-7-7-7-7-7-7-7-8-8-8-8-9-9-9-9-10-10-10-10-10|
D|-------------------------------------------------------------|
A|-2-2-2-3-3-4-4-5-5-5-5-5-5-5-5-6-6-6-6-7-7-7-7-8--8--8--8--8-|
E|-------------------------------------------------------------|

E|--------------------------------------------|
B|--------------------------------11-14--14---|
G|-10-10-10-11-11-11-11--11-11-11--------11---|
D|--------------------------------------------|
A|-8--8--8--9--9--9--9------------------------|
E|--------------------------------------------|

2nd verse
E|-------------------------------------------------------------|
B|-------------------------------------------------------------|
G|------------------3-5(7)-5(7)-5(7)-5(7)-5(7)5-3--------------|
D|---5-----3---5--5-------------------------------3-5---7-6-5~-|
A|-----3-5----------------------------------------------5-4-3~-|
E|-3---------3-------------------------------------------------|

E|-------------------------------------------------------------|
B|-------------------------------------------------------------|
G|---5------3---5--5-3-5(7)-5(7)-5(7)-5(7)-5(7)5-3-------------|
D|------3-5------------------------------------------5-3(4)----|
A|-3----------3---------------------------------------------5~-|
E|-------------------------------------------------------------|

E|-------------------------------------------------------------|
B|-------------9-7-------7-5-----------------------------------|
G|---0---------9-7-------7-5-----------------------------------|
D|----3p0------9---9-----7---7--------------5-5-8-8-7-7-6-6----|
A|--------3-------------------------3-4-5-5-----------------6-6|
E|1-3-------5-7-------3-5-----5-6-7----------------------------|

E|------------------------------6p4-----------------|
B|----------------------------------6p4-------------|
G|------------7-7-7-7-7-7-7-7-----------6p42--------|
D|---5----6---7-7-7-7-7-7-7-7-----------------4-2-0-|
A|-0-3--x-4---5-5-5-5-5-5-5-5-----------------------|
E|--------------------------------------------------|

E|-------------------------------------------------------------|
B|-------6(8)-6-3-----------------6(8)6-6(8)3------------------|
G|---------------5(7)-5(7)-3~----------------5-3-3h5-5p3-3-5p3-|
D|---5-3~--------------------5-3----------------5-------5-----5|
A|------------------------------5~-----------------------------|
E|1-3----------------------------------------------------------|

E|---------------------------------------------7---6--5-3---2-2|
B|---------------------------------------------6---------------|
G|3h5-5(7)-5p3---3-5(7)5p3--3-3h5-3h5-3h5p3-/7-7-/6--5--3h4-2--|
D|-------------5----------5----------------5-------------------|
A|-------------------------------------------------------------|
E|-------------------------------------------------------------|

E|--3----5---7---10----------------10--------------------------|
B|-------------------------10---------13p10--------------------|
G|/4--/5---/7-/11---12(14)----(14)----------12p10----10(11)----|
D|------------------------------------------------12--------12-|
A|-------------------------------------------------------------|
E|-------------------------------------------------------------|

E|---------------------------------|
B|---------------------------------|
G|----5-7(9)-7-5(6)---5-7(9)-7-5---|
D|-/7---------------7------------7-|
A|---------------------------------|
E|---------------------------------|

E|-------------------------------------------------------------|
B|--------11------11-----------------9-------9-----------------|
G|-----8--10(12)-(12)10-8h10-8----8~-8(10)-(10)8-8p6---x-5-x-6-|
D|-----8-----------------------10--------------------8-x-5-x-6-|
A|-/10-------------------------------------------------x-3-x-4-|
E|-------------------------------------------------------------|
  16x    8x
E|---|-------|-------------------------------------------------|
B|---|-------|--17p15--15-17~(19)17-15-17-15-------------------|
G|---|-------|7/-----16---------------------17-17~1614-12------|
D|---|-------|7/-----------------------------------------14----|
A|5-3|5p3-3-4|5/-------------------------------------------1210|
E|---|---5---|-------------------------------------------------|

E|---------------------------------------------------|
B|--------------------------------13--13-------------|
G|-------------5-5-7-7-9-9-/1311--------10/12--12-12-|
D|----1210-----------------------10--10--------------|
A|-------------3-3-5-5-7-7-/119----------8/10--10-10-|
E|-12-108--------------------------------------------|

                                         4x
E|---------------------------------------||-3p1p0--------|
B|-----7-----5-----9-----7---------------||-------3p1p0--|
G|-----7-----5-----9-----7---------3t5~~-||--------------|
D|-7-7---5-5---9-9---7-7---5-4---5-------||--------------|
A|-5-5---3-3---7-7---5-5---3-2-5-5-------||--------------|
E|-------------------------------3-------||--------------|

E|3p1p0-3h5-3-----------------------|
B|------------5-3~------------------|
G|-----------------/4~-5-4h5p4-0-/7-|
D|----------------------------------|
A|----------------------------------|
E|----------------------------------|

E|-------------------------------------------------------------|
B|-------------------------------------------------------------|
G|4t5~-2t4~-0-/12-10~------------------------------------------|
D|-------------------12p10----12p10-------------12-------10-12-|
A|-------------------------12-------12-12-11-10----10-12-------|
E|-------------------------------------------------------------|
   4x
E|----||---------||
B|----||------13-||
G|-10-||12(14)---||
D|----||---------||
A|----||---------||
E|----||---------||

E|---2x--------------------------------------------------------|
B|-13p10----------------------------------13(15)~-13h15p13-----|
G|-------12p10--------12(14)-12-10(11)---------------------14--|
D|-------------12-10-------------------12----------------------|
A|-------------------------------------------------------------|
E|-------------------------------------------------------------|

E|---------------------------|
B|----15(17)-15-13----15-13~-|
G|-----------------14--------|
D|-15------------------------|
A|---------------------------|
E|---------------------------|

E|-------------------------------------------------------------|
B|-----7------5-----9-------12-------11-----5-----4------2-----|
G|-----7------5-----9-------12-------11-----5-----4------2-----|
D|-7-7----5-5---9-9---12-12----11-11----5-5---4-4----2-2-------|
A|-5-5----3-3---7-7---10-10-----9--9----3-3---2-2----0-0-------|
E|---------------------------------------------------------0-1-|

E|-----|
B|-----|
G|-----|
D|-----|
A|-----|
E|-2-3-|

E|-----------------1h3p1p0-------------------------------------|
B|-3---3-------------------3p1p0----------6h8p6----------------|
G|-5(7)5(7)-3-5~-3---------------4-5~--/7-------7-5-3---3-5----|
D|-----------------------------------------------------5-------|
A|-------------------------------------------------------------|
E|-------------------------------------------------------------|

E|---------15----------------|
B|------------18p15----------|
G|-17(19)----------17-15-----|
D|------------------------17-|
A|---------------------------|
E|---------------------------|
             4x
E|-/17-13-----17p13--------------------------------------------|
B|--------13--------13-13(15)-13-13-10-------10-13(15)-13(15)~-|
G|-------------------------------------12-10-------------------|
D|-------------------------------------------------------------|
A|-------------------------------------------------------------|
E|-------------------------------------------------------------|

E|-13----13-----|
B|----15----15~-|
G|--------------|
D|--------------|
A|--------------|
E|--------------|

E|-15(17)-15-15(17)--------15h17p15----------------------------|
B|------------------15-15~----------17-15----15-18~------------|
G|----------------------------------------16-------------------|
D|-------------------------------------------------------------|
A|-------------------------------------------------------------|
E|-------------------------------------------------------------|

E|-18(20)18(20)-15-18---------------18--------|
B|--------------------15--15-18(20)----18-15~-|
G|--------------------------------------------|
D|--------------------------------------------|
A|--------------------------------------------|
E|--------------------------------------------|

E|-------------------------------------------------------------|
B|-----7-----5-----9-----7------7--------------4-------------4-|
G|-----7-----5-----9-----8------7------5-------4------3------4-|
D|-7-7---5-5---9-9---9-9----7-7--------6---4-4--------4--4-4---|
A|-5-5---3-3---7-7---9-9----5-5----7-7-----2-2----4-4----2-2---|
E|-------------------7-7-----------5-5------------2-2----------|

E|-------------------------|
B|-----3-------------------|
G|-----3-------------------|
D|-1-1-----------------3~--|
A|-1-1-----------1-3-5-----|
E|-------0-1-2-3-----------|

      4x
E|-------------------------------------------|
B|-------------------------------------------|
G|------------------------------------6~~----|
D|-5p3--5p3-------------------------------8--|
A|------------13-------5-8-------5-8---------|
E|------------13--3-/7------/5-7-------------|

Bridge:
                        repeat many times
E|------------------||----------10-----9---8-||
B|----5---5---5---5-||-12-------10-----9---8-||
G|------------------||-12-------10t11-10---9-||
D|--5---5---5---5---||-12h14p12-10-----9---8-||
A|------------------||-----------------------||
E|------------------||----------10-----9---8-||

   repeat many times     with these licks scattered throughout
E|-----------8----7---6-|--------------|--------------|
B|-10--------8----7---6-|------13------|--------------|
G|-10--------8t9--8---7-|--/14----14---|--7-8-10-8-7--|
D|-10h12p10--8----7---6-|--------------|--------------|
A|----------------------|--------------|--5-6-8--6-5--|
E|-----------8----7---6-|--------------|--------------|

E|-/10-8------------------------|
B|-------10p8-------------------|
G|------------10-8-10-(11)-10-8-|
D|------------------------------|
A|------------------------------|
E|------------------------------|

E|10(12)10-8---------------------------------------------------|
B|-----------10-8----------------------------------------------|
G|----------------10(11)10~-8-10(11)-10-8~---------------------|
D|--------------------------------------------10-12(14)12-10---|
A|----------------------------------------/12----------------12|
E|-------------------------------------------------------------|

repeat verse before bridge and then follow the crescendo
with this:
    4x                4x
E||-5-5-6-7-6-5-||--/17-17-17-17-17-17-17-18-17-||
B||-5-5-6-7-6-5-||--/17-17-17-17-17-17-17-18-17-||
G||-5-5-6-7-6-5-||--/17-17-17-17-17-17-17-18-17-||
D||-4-4-5-6-5-4-||--/16-16-16-16-16-16-16-17-16-||
A||-5-5-6-7-6-5-||--/17-17-17-17-17-17-17-18-17-||
E||-------------||------------------------------||

Lyrics:

Burning desire sets my soul on fire
Burning desire sets my soul on fire
I feel my body drowning in your sea of love
But in the meantime there's nothing to dream

Between Hell and Heaven you just may see me chase my heart
 everywhere
Burning desire hotter than an electric chair

Burning desire hotter than an electric chair

Bridge:

Last night sure was sweet
it sure was good this time around
you really sent me around and around, round and round

You came on down hard on me baby
you showed me just how love could be
that's the way I like it to be
I better leave now baby
Baby I'll see you about 2 or 3, yeah

 

 

 
 
 
     
 
 
 

инженеров.netДомашняя страницаНезависимый морской сайтПортал для гитаристовПриколы, юмор, анекдоты

 
обновлен 24.12.2011
в сети с 06.03.2004
 
 
Неофициальный морской сайт Домашняя страница Яндекс цитирования Internet Map Rambler's Top100
Учет посещений на народе

все тексты песен являются собственностью их автора. песени взяты из открытых источников. на сайте размещены с целью ознакомления. при использовании материалов сайта ссылка на сайт обязательна.

по всем вопросам стучитесь в асю или пишите на электропочту

идея, дизайн, редактирование Леха ZaG Загрядский

zagstudio