Аккорды для всех - сайт народных аккордов
 
Аккорды и тексты песен
Guitar Pro табулатуры
Уроки игры на гитаре
Таблица аккордов
Бесплатные программы для музыкантов
Фотографии музыкантов
Видеоклипы
Каталог ссылок
Обратная связь
На главную страницу
 
 
     
 
 

Аккорды, песни, текст, табулатура



Hendrix Jimi - Wind Cries Mary


Gtr I (E A D G B E) - 'Jimi clean electric'
Gtr II (E A D G B E) - 'Jimi dist electric'

Intro
  Q=70
 4/4
  Gtr I
   E Q   E  +H       a  E a  Q   a  E  +H
E|-----------------|--------------------------|
B|-----------------|--------------------------|
G|-8-9--10-(10)----|----8----9-----10-(10)----|
D|-8-9--10-(10)----|----8----9-----10-(10)----|
A|-6-7---8--(8)----|-8h10-9h11--10h12-(12)----|
E|-6-7---8--(8)----|--------------------------|
                                        |3-|
   E Q   E  +Q  Q   a  E a  Q   a  E  +E  S  a  S  S  S  S  E
E|----------------|-------------------------------------------||
B|----------------|-------------------------------------------||
G|----------------|----8----9-----10-(10)---------------------||
D|-8-9--10-(10)---|----8----9-----10-(10)---------10-12-10----||
A|-6-7---8--(8)---|-8h10-9h11--10h12-(12)-8-10s12----------12-||
E|-6-7---8--(8)---|-------------------------------------------||

 Verse 1
  Q=78
                             |3-|                          |3|
  Q  e E Q e E  E.S a E E S a E E a E  E  Q e S S a E E S a E E
E|---8-----6--|--------------------------|---------------------|
B|---8-----6--|---------------1-----1-(1)|--5------------------|
G|---9-----7--|---2-0h2-----0h2(0)0h2-(2)|--5-----------3------|
D|--10-----8--|---3---3---3---3-----3-(3)|--5-------3-3---3h5-3|
A|------------|------------------------x-|3---x-3-3h5----------|
E|8----7-6----|--------(1)-------------x-|---------------------|

   Q  E S S a E Q  a S S   E E E E E. S E E
E|------------1-1--------|------------------|
B|----------1h3-1------1-|---1----------x---|
G|----0------------0h2---|-0---0------3-x---|
D|----3------------------|-2---2------3-x---|
A|--------3--------------|-3-----2-1--------|
E|-1----1----------------|------------------|

  E E a E E S E E S a E E S
E|---------------------------|
B|-------1-------------1-----|
G|---2-0h2-----------0h2---2-|
D|---3---3---------3---3---3-|
A|-----------3---------------|
E|-1-------1---1-1-------1---|

   S S S S S S S S  S S S S S S S S
E|----------------------------------|
B|-----3-3-5p3---3----6-6-6-8-6-x-x-|
G|-4-4-4-4-4-----4----7-7-7-7-7-x-x-|
D|-5-5-5-5-5---5------8-8-8-8-8-x-x-|
A|----------------------------------|
E|-----------------/6---------------|

   E Q   E  +Q.   E   E S S S S S S S S S S S S S S
E|------------------|-------0-----------------------|
B|------------------|-3-3-3-0-3-------6---6-8p6-6-x-|
G|-8-9--10-(10)-----|-4-4-4-0-4---4-7-----7-7---7-x-|
D|-8-9--10-(10)-----|-5-5-5---5-5---8-----8-6---8-x-|
A|-6-7---8--(8)-----|-3-------------7---------------|
E|-6-7---8--(8)-----|-5-------------6---6-----------|

                                           |-3-|     |3-|  |3-|
   E E E E  +Q  E E a  E a  Q  a  E  +E   S  a  E  S  E  S  E
E|-----------------|------------------------------------------||
B|-----------------|------------------------------------------||
G|-8-9--10-(10)-x--|---8----9----10-(10)----------------10----||
D|-8-9--10-(10)-x--|---8----9----10-(10)-10----10-10-12-10----||
A|-6-7---8--(8)-x--|8h10-9h11-10h12-(12)----10h12----------12-||
E|-6-7---8--(8)----|------------------------------------------||

 Verse 2
       |3|        |3-|
   Q  E E S S  S  +E  S E E
E|---------------------------|
B|----5----------------------|
G|----5---5-----------3-3----|
D|----5-----3-(3)-(3)---3----|
A|-3----3---3h=5--(5)-----5--|
E|---------------------------|

             |3|                     |3|
   Q  a T S. E S a E a Q  E    E E e E S S  E  S S S a E
E|---------------------1-----|---------------------------|
B|------1----------1---1-----|-----5---------------------|
G|----0h2p0------0h2-0h2-----|-----5---5-------3---3-----|
D|------3------3---3---------|---5---5---3-(3)-3-3-----3-|
A|-------------3-------------|-3-----3---3h=5--------3h5-|
E|-1---------1------------3/-|---------------------------|

             |3|   |3|      |3-|
   E S S a E E S a E S a E +E  S E
E|------------------------------------|
B|---------1-------1-----1-(1)--------|
G|-----2-0h2-----0h2p0-0h2-(2)-2------|
D|---3-----3-------3-----3-(3)-3------|
A|-------------3----------------------|
E|-1---------1-------------------1/---|

                |3|                     |3| |3| |3|
    E. S E e Q  E S E   E  E  S S S S E E S E S E S
E|--8------9-8--8-----|-----------------------------|
B|--8--8---7-6--6-6-6-|---(1)---1-------------------|
G|--9--9---8-7--7-7-7-|-2-(2)---2-----------2-2---2-|
D|-10------9-8--8-8-8-|-3-------3---3-----3-3-3---3-|
A|--x-----------------|-3---------3-3-3-3---3---3---|
E|--8-----------------|-1-----1-------1-1---1---1---|

    S S S S S S S S  S S S S S S S S
E|------------------------------------|
B|-/3-3-3-3-5-3---3--------6-8p6-6-x--|
G|-/4-4-4-4-4-----4--------7-7---7-x--|
D|-/5-5-5-5-5-----5-/8-8-8-8-6---8-x--|
A|-/3----------------x-x-x------------|
E|-/3-----------3---/6-6-6------------|

   E Q   E  +Q   Q    E. S a E. S  E S S S S S S
E|------------------|----------------------------|
B|------------------|------5p3---------6-8p6-----|
G|-8-9--10-(10)-----|--------4----/7-7---7-----0-|
D|-8-9--10-(10)-----|-5------5----/8-8---8---8---|
A|-6-7---8--(8)-----|-x------------x-------------|
E|-6-7---8--(8)-----|-3--3------3-/6-------------|

   E Q   E  +H       a  E a  Q   a  E  +H
E|-----------------|--------------------------||
B|-----------------|--------------------------||
G|-8-9--10-(10)----|----8----9-----10-(10)----||
D|-8-9--10-(10)----|----8----9-----10-(10)----||
A|-6-7---8--(8)----|-8h10-9h11--10h12-(12)----||
E|-6-7---8--(8)----|--------------------------||

  Guitar Solo
   Gtr II
     Q        a  E      E        E  S  S   S   S    E
E|--------------13------------------------------------|
B|-----------13h15----------------13-13-----------13--|
G|---------------------------------12-14--12-------12-|
D|--------------------------------------------15------|
A|----------------------------------------------------|
E|----------------------------------------------------|

  Gtr I
                                          |--3--|
    E  S  S     S   S  S  S  a  E  E     +E     S  E
E|----------------------------------------------------|
B|----------------------------------------------------|
G|-/10-10-10----10--10-------10s=8--8-----(8)---------|
D|-/10--------------------10-10s=8--8-----(8)----x--8-|
A|-/12-----------------12----12s10-10----(10)----x-10-|
E|----------------------------------------------------|

   a  S  S  E  E  S  S  a  Q  +S   S E Q a  E E E  S  S  S S  E
E|------------------------------------|----13------------------|
B|---13-------------------------------|-13h15----13-13------13-|
G|12h14p12----------------------------|-----------12-14-12---12|
D|---------15----15-17-15h17-(17)p15--|-------------------15---|
A|------------17----------------------|------------------------|
E|------------------------------------|------------------------|

      PM---|                 PM--|
  E E a  E E E S S S   S S  S E  S  S  S  S  S  S a  E  E  E  E
E|---------------------------|---------------------------------|
B|---------------------------|---------------------------------|
G|---------------------------|--10-10-10-10-10-10----8--8--8---|
D|---------------------------|--10-10-10-10-10-10----8--8--8---|
A|---------8-------------8---|8--8--8--8--8--8--8-8h10-10-10---|
E|6-6-8s10---4-4-4-8s=10---10|-------------------------------10|

     E  S  S    Q       a  E  a  Q         E
E|----------------------------------------------|
B|----------------------------------------------|
G|----------------------------------------------|
D|-----15h17---15------15h17--------------15----|
A|-/17-----------------------15h17--------------|
E|----------------------------------------------|

     PM---|                PM------|
     E  S  S a  S S  E     E     S S S  S  S  S
E|----------------------------------------------|
B|----------------------------------------------|
G|----------------------------------------------|
D|----------------------------------------------|
A|----------------8------------------------8----|
E|--/6--6--6-8s10---10-----4-----4-4-8s10----10-|

   Q  a  E  E E    S  S  S  S  E     E  S  S  S  E.    +Q   Q
E|------13----------------------|------------------------------|
B|---13h15------13-13-------13--|------------------------------|
G|---------------12-14-12----12-|------------------------------|
D|------------------------15----|-----15h17--------------------|
A|------------------------------|-/17-------15-17----(17)------|
E|------------------------------|------------------------------|

  E S  S  S  S  S  S S  S  S  S  S  S  E  E E S S S S E S S E E
E|--------------------------------------|----------------------|
B|--------------------------------------|----------------------|
G|-10-10-10-10----10-------8--8--8--8--8|----------------------|
D|-10-10-10-10-10-10-------8--8--8--8--8|----------------------|
A|8-------8--8-------8h10-10-10-10-10-10|---------8-x---------6|
E|--------------------------------------|/6-6-8-10----4-4-4S8--|

   E  a  E     S  S   S  S  S  S  a  E    a  Q
E|------15----15-------------------------------------|
B|---15h17-----------15-15-15-------15------15-------|
G|-------------------14-16-14----14h16---14h16-------|
D|----------------------------17---------------------|
A|---------------------------------------------------|
E|---------------------------------------------------|

         |3-|                        |3|
   E     E  S  S  S   E     E        E S     S S S S
E|-------------------------------------5-----5-------|
B|-3-----3--3--5p=3---3-----3--------3-3-----3-----x-|
G|-4-----4--4--4-(4)--4-----4--------4-4-----4-----x-|
D|-5----(5)-5--5-(5)--5-----5--------5-5-----5-----x-|
A|-3------------------3-----3--------3---------------|
E|-3------------------3-----3--------3---------x-3---|

  E a S S E S S S S E a E E    S  E  S   S  S  S S  S  S    Q E
E|------6---6-6-------------|--------(12)---------9------------|
B|----6-6-8-6-6-------------|--12b14------9----9---------------|
G|--6h7-7---7-7h8-8-8-8p7---|---------------11------11b13-9----|
D|--------------------------|----------------------------------|
A|--------------------------|----------------------------------|
E|--------------------------|----------------------------------|

                             |3|
  E S S E E E E   S S E S    E       E   e S S  S  S  S  S E E
E|----6-------------------|------------------------------------|
B|--6-6-6-6-6-6---6-6-----|------------------------------------|
G|7-7-7-7-7-7-7---7-7-----|-------------10-----10-10-10-10-----|
D|8-8-8-8-8-8-8---8-8-----|-------------11-----11-11-11-11-----|
A|7-----8-8-8-8---8-------|-------------11------x--x--x--x-----|
E|6-----6-6-6-6---6---6S8-|-/9-------9---9-9-9--9--9--9--9-9-9-|

    E  a  E  E  E  S  S  S  S  S  S  E
E|-------13-13---------------------------|
B|----13h15-13----13-13-13----13----13---|
G|----------------12-14-12----12-14-12---|
D|-------------------------15------------|
A|---------------------------------------|
E|---------------------------------------|

   Q        E  E  E     E     E     S S
E|---------------------------------------|
B|---------------------------------------|
G|-10-------------------------------10---|
D|-10-------10-10-------10----------10---|
A|--8--------8--8--8-----8-----8-----8---|
E|-------------------------------------8-|

Verse 3
    S  S  S  S  e  E  Q            E     a  E
E|-----------------------------------------------||
B|-----------------------------------------------||
G|-------10----10--------------------------------||
D|-10h12----12-10--------------------------------||
A|----------------13-12--------------------------||
E|-------------------------------/15----3h=5-----||

   E  E  E  E  S  S  S  S  S  S  S  S    Q E S S S S E S S S S
E|------------------------------------||-----------------------|
B|------------------------------------||---5-------------------|
G|---10-10-10-10-10-10-10-10-10-10-10-||---5-------------------|
D|---10-10----10-10-10-10-10-10-10-10-||-5-5-5-------3-3-3-----|
A|-8--8--8-----8--8--8--8--8--8--8--8-||-3-3---3-3h5-------3h5-|
E|------------------------------------||-----------------------|

  F
Gtr I
          |3|          |3-|
   Q  a E E S a E a E +E  S E
E|----------------------------|
B|------1---------------------|
G|----0h2---------------------|
D|------3---------------------|
A|----------3-----------------|
E|-1----------3h5-3h5-(5)-3s1-|

        |3|         |3|
   Q  E E S S  S  E E S a E    Q  E S S a E a E S S E
E|---------------------------|------------------------|
B|---------------------------|----1---1---1---1---1---|
G|----5-5-5-------3-3--------|----2---2-0h2-0h2-2-----|
D|----5-5-5-3-(3)-----3------|----3---3---3---3-------|
A|-3--3-----3--5--------3h5--|----------------------3-|
E|---------------------------|-1----1-----------------|

    E  S S  S  S  E E S S S S E
E|-------8-10--8------6-6-6-6---|
B|-----8-8--8--9----6-6-6-6-6---|
G|-----9----9--9--9-7-----7-7---|
D|----10---10-10-10-8-----------|
A|------------------x---------x-|
E|-/8---------------6-----------|

   Q  E S S E S S +S  S S S   Q  S S S S  S S S S S S E
E|--------------------------|---------------------------|
B|----1---1-----1-(1)-1---2-|-3--5-3-3-3-/6-6-6-6-8-6---|
G|----2---2---2-2-(2)-2---3-|-3--3-3-3-3-/7-7-7-7-7-7-7-|
D|----3---3---3-3-(3)-3---4-|-5--5-5-5-5-/8-8-8-8-8-8-8-|
A|----------3---------------|-x-------------------------|
E|-1--------1-----------1---|-3-------------------------|

   E E E  E  +Q   E E   E S S S S S S E S S S S E
E|--------------------|---------------------------|
B|--------------------|---3-3-5-3---------6-8-6---|
G|----------------x---|---4-4-4-4---4---7-7-7-7---|
D|-8-9---10-(10)--x---|-5-5-5-5-5-5-5---8-8-8-8---|
A|-6-7----8--(8)--x---|-3---------x---------------|
E|-6-7----8--(8)------|-3---------3---6---------6-|

   E Q   E  +H       a  E a  Q   a  E  +Q    e  e
E|-----------------|------------------------------||
B|-----------------|------------------------------||
G|-8-9--10-(10)----|----8-------------------------||
D|-8-9--10-(10)----|----8----9-----10-(10)--------||
A|-6-7---8--(8)----|-8h10-9h11--10h12-(12)--12----||
E|-6-7---8--(8)----|----------------------------7-||

  Chorus
         |3|       |3| |3|
   E E E E S S  S  E S E S  E
E|------------------------------|
B|------------------------------|
G|-----5---5-------3-3----------|
D|-----5-5---3-(3)-3---3-3-(3)--|
A|-3-3-3-----3h=5--------3h=5---|
E|------------------------------|

           |3| |3| |3-|                            |3|
   E E a E E S E S E  S  a E E   E E E S S S S S S E S  E
E|-----------------------------|----------------------------|
B|-------1-----------------1---|-------5-5------------------|
G|-----0h2-------2-------0h2---|---5-5-5-5-----3-3----------|
D|-------3---3---3---(3)---3---|-5-5-5-5-5-----3---3-3-(3)--|
A|-----------3-----------------|-3---------3s5-------3--5---|
E|-1-1-----1---1---1---------1-|----------------------------|

 |3-|             |3|           |3| |3| |3|                 |3|
  E +E S a S  S S S E S E a E E E S E S E S E Q E E Q E E S EEQ
E|-----------------------------|------------------|------------|
B|-----1---1-(1)1-1---------1--|------------------|---1---1---1|
G|-----2-0h2p=0-2-2-------0h2--|--5-------5-----3-|---2---2---2|
D|-----3---3-(3)3-3---3-----3--|----5-5-5-----3-3-|---3---3---3|
A|--------------3-------------3|3---3---3---2-1-1-|-------3----|
E|1-(1)---------1---1---1------|------------------|-1---1---11-|

   S S S S S  S  S S E S S S S E
E|-------------------------------|
B|-3-3-3-3-5p=3----3-6-6-6-8-6---|
G|-4-4-4-4-4-(4)---4-7-7-7-7-7---|
D|-5-5-5-5-5-(5)-5-5-8-8-8-8-8-8-|
A|-x---x---------x---x-----x---x-|
E|-3---3---------3---6-----6---6-|

   E E E  E  +Q   E E   E S S S S S S S S S S S S E
E|--------------------|------------------------------|
B|--------------------|---3-3-5-3-3-3-6-6---6-6-6----|
G|-8-9---10-(10)--x---|---4-4-4-4-4-4-7-7---7-7-7----|
D|-8-9---10-(10)--x---|-5-5-5-5-5-5-5-8-8-8-8-8-8----|
A|-6-7----8--(8)--x---|-x---------x---x---x----------|
E|-6-7----8--(8)------|-3---------3---6---6----------|

   E E E  E  +Q   E E   a  E a  Q   a  E  +Q   E E
E|--------------------|----------------------------|
B|--------------------|----------------------------|
G|-8-9---10-(10)--x---|----8----9-----10-(10)--x---|
D|-8-9---10-(10)--x---|----8----9-----10-(10)--x---|
A|-6-7----8--(8)--x---|-8h10-9h11--10h12-(12)--x---|
E|-6-7----8--(8)------|----------------------------|

Outro - Solo
Gtr II
   a  E E  a  E  E  +Q   Q        H    E   a  S  S  S   S S  S
E|-8s10s8--------------------|---------------------------------|
B|-8s10s8-10h11-10-(10)------|---------------------------------|
G|-----------10-10-(10)------|---------------------------------|
D|--------10h12-10-(10)------|------------10h12-10-------------|
A|---------------------------|---------------------12--10-8----|
E|---------------------------|------------------------------10-|

Gtr I
      E E     E  E  +Q   E E   a  E a  Q   a  E  +Q        Q
E|---------------------------|--------------------------------|
B|---------------------------|--------------------------------|
G|----8-9-------10-(10)--x---|----8----9-----10-(10)----------|
D|----8-9-------10-(10)--x---|----8----9-----10-(10)----------|
A|----6-7--------8--(8)--x---|-8h10-9h11--10h12-(12)------12--|
E|----6-7--------8--(8)------|--------------------------------|

   E Q    E  +E  S  S S  S S  S
E|-------------------------------|
B|-------------------------------|
G|-------------------------------|
D|-------------------------------|
A|--------------------8-10-8-----|
E|-6-7----8--(8)-8h10--------10--|

   E E E  E  +Q       E    E
E|-------------------------------|
B|-------------------------------|
G|-8-9---10-(10)------x----------|
D|-8-9---10-(10)------x----------|
A|-6-7----8--(8)------x----------|
E|-6-7----8--(8)-----------------|

   a  E a  Q  a  E  E  a  E S  S E   a  E e  a  E  E  +H    W
E|------------------------8-8------|-8h10-8---------------|---*|
B|---------------------8h10-8------|-8h10-8-10h11-10-(10)-|---*|
G|----------------------------10p8-|-----------10-10-(10)-|---*|
D|---------------------------------|--------10h12-10-(10)-|---*|
A|-8h10-9h11-10h12-12--------------|----------------------|---*|
E|---------------------------------|----------------------|---*|

   a  E a  Q   a  E  +Q   Q        E Q      E  +H     E E Q H
E|----------------------------|--------------------|----------*|
B|----------------------------|--------------------|----------*|
G|----8----9-----10-(10)------|----8-9-----10-(10)-|-!x-------*|
D|----8----9-----10-(10)------|----8-9-----10-(10)-|-!x-------*|
A|-8h10-9h11--10h12-(12)------|----6-7------8--(8)-|-!x-------*|
E|----------------------------|----6-7------8--(8)-|----------*|

 

 

 
 
 
     
 
 
 

инженеров.netДомашняя страницаНезависимый морской сайтПортал для гитаристовПриколы, юмор, анекдоты

 
обновлен 24.12.2011
в сети с 06.03.2004
 
 
Неофициальный морской сайт Домашняя страница Яндекс цитирования Internet Map Rambler's Top100
Учет посещений на народе

все тексты песен являются собственностью их автора. песени взяты из открытых источников. на сайте размещены с целью ознакомления. при использовании материалов сайта ссылка на сайт обязательна.

по всем вопросам стучитесь в асю или пишите на электропочту

идея, дизайн, редактирование Леха ZaG Загрядский

zagstudio