Аккорды для всех - сайт народных аккордов
 
Аккорды и тексты песен
Guitar Pro табулатуры
Уроки игры на гитаре
Таблица аккордов
Бесплатные программы для музыкантов
Фотографии музыкантов
Видеоклипы
Каталог ссылок
Обратная связь
На главную страницу
 
 
     
 
 

Аккорды, песни, текст, табулатура



Hendrix Jimi - Bold As Love


e|-------------------------------------------------------------|
B|-8b10-8b10b8-------------------------------------------------|
G|------------9-7-8/9-9b11-11b9---------------------6-119-6----|
D|-----------------------------9b11-11b9-7-9-7?9b11----------9-|
A|-------------------------------------------------------------|
E|-------------------------------------------------------------|

e|-------------------------------------------------------------|
B|-------------------------------------------------------------|
G|-------------------------------------------------------------|
D|-9b10b9-7------------------9b11-b9-9b11b9-7---7-7------------|
A|----------9---999-9/10-10-------------------9--9?-9/10-10-10-|
E|-------------------------------------------------------------|

e|--------------------------8-10-12-12-12b14-12b14--10---12b14-|
B|---------------7-8/10-8-10-----------------------------------|
G|-----------6h10----------------------------------------------|
D|----7-/97----------------------------------------------------|
A|-10----------------------------------------------------------|
E|-------------------------------------------------------------|

e|-12b14b12-----------------------14b16-12b14b12-12b14b12------|
B|----------10--12b14-10-12?12/14------------------------10-12-|
G|-------------------------------------------------------------|
D|-------------------------------------------------------------|
A|-------------------------------------------------------------|
E|-------------------------------------------------------------|

e|--------------------------12-14-15b17-17b15p12-14-12h14p12---|
B|-12b14b12---10--------------------------------------------12-|
G|---------11---11-11/12-12------------------------------------|
D|-------------------------------------------------------------|
A|-------------------------------------------------------------|
E|-------------------------------------------------------------|
								 Drum solo?
e|------------------------------------------------------5------|
B|-12b14---14b16---------------------------------------5-------|
G|------------------------------------------7-7-7-7-7-7-6------|
D|----------------------7---7-7-7-7-7-7-7---7-7-7-7-7-7-7------|
A|----------------555-------5-5-5-5-5-5-7---5-5-5-5-5-5-7------|
E|-------------------5------------------5---------------5------|

e|-------------------------------------------------|
A|-12b14?-12b14b12p10------------------------------|
G|-------------------13-13?13b15-13b15-13-11-11-13-|
D|-------------------------------------------------|
A|-------------------------------------------------|
E|-------------------------------------------------|

E|-------------------|
B|-12b14-12b14b12p10-|
G|-------------------|
D|-------------------|
A|-------------------|
E|-------------------|

e|-----------------------------12b13-12b13-b12p10-12--|
B|-------------12-12-12-------------------------------|
G|-13-13-13b15---------13-13-13-----------------------|
D|----------------------------------------------------|
A|----------------------------------------------------|
E|----------------------------------------------------|

E|12-12b14b12------|
B|-----------12-10-|
G|-----------------|
D|-----------------|
A|-----------------|
E|-----------------|

e|-13-13-15b17-15b17-15-------------------------15/19--17b19---|
B|----------------------12b13-15-15b17?b15p13------------------|
G|-------------------------------------------14----------------|
D|-------------------------------------------------------------|
A|-------------------------------------------------------------|
E|-------------------------------------------------------------|

e|-17b19-15h17p15-12---------------------------------|
B|-------------------15b17-15b17?b15p13?15-15-15b17--|
G|---------------------------------------------------|
D|---------------------------------------------------|
A|---------------------------------------------------|
E|---------------------------------------------------|

E|---------------|
B|15b17b15p13-13-|
G|---------------|
D|---------------|
A|---------------|
E|---------------|
								 Repeat 2X
e|-15/19--------------------------------|----------------------|
B|--------------------------------------|+---------------------|
G|--------------------------------------|-------------10-------|
D|--------------------------------------|-------11-------11----|
A|--------------------------------------|+---11----11-------11-|
E|--------------------------------------|--9-------------------|

e|--------------------------------------------------------|----|
B|-------------------------------------------------------+|----|
G|------------5-------6-------6---------------------------|----|
D|-11----6-----6---6/--8---8---8---8-----9--------10------|----|
A|------6---6-----6-------8-------8-----9---9---10----10-+|----|
E|----4-------------------------------7-------8-----------|----|
   >
e|-9X------------9-----9---------12p9--------9-----9-----------|
B|-12b14-12-12b14-12b14------9h12-----9-12b14-12b14-12b14------|
G|----------------------11b13----------------------------------|
D|-------------------------------------------------------------|
A|-------------------------------------------------------------|
E|-------------------------------------------------------------|

E|------999999----|
B|-12b14----------|
G|----------------|
D|----------------|
A|----------------|
E|----------------|

e|-9-------------------14b16-14------14b16-14---14b16-14-------|
B|-------12b14b12p9-999-----------/14--------/14---------------|
G|-------------------------------------------------------------|
D|-------------------------------------------------------------|
A|-------------------------------------------------------------|
E|-------------------------------------------------------------|

E|---14b16-14-----|
B|/14--------/14--|
G|----------------|
D|----------------|
A|----------------|
E|----------------|


e|-------------------------------------------------------------|
B|----12b14b12p9-----9-12-9------------------------------------|
G|--------------11b13------11-9-11p9---------------------------|
D|----------------------------------11-----------9X-12b14------|
A|------------------------------------11-9----/11X-------------|
E|----------------------------------------12-9-----------------|

E|----------------|
B|----------------|
G|----------------|
D|-11---9-11-9?---|
A|----------------|
E|----------------|

e|-------------------------------------------------------------|
B|-------------------------------------------------------------|
G|-------------------------------------------------------------|
D|---9-11b1311p9------9-11-14-13--13-11--11-10-----------------|
A|-11------------11-11-----------------14------11-9------11-9--|
E|--------------------------------------------------12-9-------|

e|----------9-9--9-9-------------------------------------------|
B|------9-12-------12b14?12b14b12p9-----9-12-9-----------------|
G|-11b13---------------------------11b13------11-9-11p9--------|
D|-------------------------------------------------------------|
A|-------------------------------------------------------------|
E|-------------------------------------------------------------|

E|----------------|
B|----------------|
G|----------------|
D|11--------------|
A|--11/15-15-15---|
E|----------------|
	    (triplets)
e|------------1616-161616-161616-161616----14-14-141414--------|
B|---------19b21------------------------17b19------------------|
G|-------------------------------------------------------------|
D|-------------------------------------------------------------|
A|-15X?15X-----------------------------------------------------|
E|-------------------------------------------------------------|

E|-141414-141414--|
B|----------------|
G|----------------|
D|----------------|
A|----------------|
E|----------------|
								  fade out.
e|-14/18-18-181818-181818-181818----16-16-161616-161616-161616-|
B|-------------------------------19b21-------------------------|
G|-------------------------------------------------------------|
D|-------------------------------------------------------------|
A|-------------------------------------------------------------|
E|-------------------------------------------------------------|

 

 

 
 
 
     
 
 
 

инженеров.netДомашняя страницаНезависимый морской сайтПортал для гитаристовПриколы, юмор, анекдоты

 
обновлен 24.12.2011
в сети с 06.03.2004
 
 
Неофициальный морской сайт Домашняя страница Яндекс цитирования Internet Map Rambler's Top100
Учет посещений на народе

все тексты песен являются собственностью их автора. песени взяты из открытых источников. на сайте размещены с целью ознакомления. при использовании материалов сайта ссылка на сайт обязательна.

по всем вопросам стучитесь в асю или пишите на электропочту

идея, дизайн, редактирование Леха ZaG Загрядский

zagstudio