Аккорды для всех - сайт народных аккордов
 
Аккорды и тексты песен
Guitar Pro табулатуры
Уроки игры на гитаре
Таблица аккордов
Бесплатные программы для музыкантов
Фотографии музыкантов
Видеоклипы
Каталог ссылок
Обратная связь
На главную страницу
 
 
     
 
 

Аккорды, песни, текст, табулатура



Hendrix Jimi - The Star Spangled Banner 


sl                        hp  sl
e|------------0|2/4-2--0--------|----4--2-020----|----0-0------|
b|0--------0---|----------------|-------------2/4|2-4-----0----|
g|--1----1-----|----------1-3-4~|4-4-------------|----------1--|
d|----2--------|----------------|----------------|------------2|
a|-------------|----------------|----------------|-------------|
e|-------------|----------------|----------------|-------------|
             sl   trl      trl                         trl trl
e|--------0|2/4-24242424-020202020|-----------|----------------|
b|0------0-|----------------------|-----------|----------------|
g|--1---1--|----------------------|1-1/3/1/3/4|6-6-8^-6868-4646|
d|----2----|----------------------|-----------|----------------|
a|---------|----------------------|-----------|----------------|
e|---------|----------------------|-----------|----------------|

             hp sl
e|-----------------|-----0-0-------|
b|-0-0-7^~-7-575/4-|-2-4-----0-----|
g|-----------------|-----------1---|
d|-----------------|-------------2-|
a|-----------------|---------------|
e|-----------------|---------------|

                                               hpp
e|---------------12^|-5-4-2-4-5-5------|-5-4--2420--0----|
b|-9-9-9-10-12-12---|------------------|------------4^-4~|
g|------------------|------------3--3-2|-----------------|
d|------------------|-------------2--2-|-----------------|
a|------------------|------------------|-----------------|
e|------------------|------------------|-----------------|

e|--------------16|-----16------16-----16~|-----0-0-0|
b|-------17---17--|---17------17-----17~--|-0-0-----4|
g|-16-16----16----|-16------16-----16~----|----------|
d|----------------|-----------------------|----------|
a|----------------|-----------------------|----------|
e|----------------|-----------------------|----------|

   turbo-picking
e|-----------------------22222222-44444444-55545-444|
b|-22222222-44444444-5555---------------------------|
g|--------------------------------------------------|
d|--------------------------------------------------|
a|--------------------------------------------------|
e|--------------------------------------------------|

    hpp               sl  sl                  p       SL
e|-2420~-----|---------------7/-|-0-2-4-454/2~0~|-4-4/9/11-|
b|-----4^~-4~|-0-0-5-5/7-7/9----|---------------|-4-4/9/11-|
g|-----------|------------------|---------------|-5-5/10/12|
d|-----------|------------------|---------------|-6-6/11/13|
a|-----------|------------------|---------------|----------|
e|-----------|------------------|---------------|----------|

e|-0~--|
b|-0~--|
g|-----|
d|-----|
a|-----|
e|-----|

 

 

 
 
 
     
 
 
 

инженеров.netДомашняя страницаНезависимый морской сайтПортал для гитаристовПриколы, юмор, анекдоты

 
обновлен 24.12.2011
в сети с 06.03.2004
 
 
Неофициальный морской сайт Домашняя страница Яндекс цитирования Internet Map Rambler's Top100
Учет посещений на народе

все тексты песен являются собственностью их автора. песени взяты из открытых источников. на сайте размещены с целью ознакомления. при использовании материалов сайта ссылка на сайт обязательна.

по всем вопросам стучитесь в асю или пишите на электропочту

идея, дизайн, редактирование Леха ZaG Загрядский

zagstudio