Аккорды для всех - сайт народных аккордов
 
Аккорды и тексты песен
Guitar Pro табулатуры
Уроки игры на гитаре
Таблица аккордов
Бесплатные программы для музыкантов
Фотографии музыкантов
Видеоклипы
Каталог ссылок
Обратная связь
На главную страницу
 
 
     
 
 

Аккорды, песни, текст, табулатура



Hendrix Jimi - Little Wing 


Verse
Intro                         F#    C#6    G#m
E|-0---0----0----0----0--0--|-2-----6------4-------------------|
B|-7---5----7---12---14--5--|-2-----6--4-7-4-------------------|
G|-4---2----4----9---11--2--|-3-----6------4-------------4---4-|
D|-6---4----6---11---13--4--|-4-----6------6--6--4-------4-6-4-|
A|-6---4----6---11---13--4--|-4-----4------6-------6-5-4-------|
E|-0---0----0----0----0--0--|-2------------4-------------------|

            B  E                  C#  B   C#   B D F#
E|----------2--0---4---4---6---6------------||-----------------|
B|----------4--0------------------6---4---6-||-4-7-7-----------|
G|----------4--1-4---4---6---6----6---4---6-||-4-7-6-----------|
D|----------4--2------------------6---4---6-||-4-7-4-4-6-4-----|
A|-6-5-4--2-2---------------------4---4---4-||-2-5-4-------6-4-|
E|-------------0----------------------------||-----------------|

                             Chorus
   G#      A#      B  Bsus E F#m7 C  A  D  D# E
E|-4-------6-------7--7-|--0---0-------------------------------|
B|-4-7-4---6-9-6---7--7-|--0---5--5--2--7--8--9----------------|
G|-4-------6-------8--9-|--1---2--5--2--7--8--9----------------|
D|-6-----6-8-----8-9--9-|--2---4--5--2--7--8--9----------------|
A|-6-------8-------9--9-|--2---4--3--0--5--6--7-----7-9-11-9-7-|
E|-4-------6-------7--7-|--0---0----------------7-9------------|

Lyrics:

F#      C#6                              G#m
Angel came down from heaven yesterday
B                                   E
Stayed with me just long enough to rescue me....
F#         C#6                  G#m
And she told me a story yesterday
B                        E
About the sweet love between the moon and the deep blue sea
B                           D              F#
The she spread her wings high over me....she said
G#m               A#m
I'll come back again to see you tomorrow
B     Bsus
      And I said

Chorus:

E                       F#m7/E
Fly on my sweet angel
C    A    D        D#  E
Fly on through the sky
E                       F#m7/E
Fly on my sweet angel
C             A              D   D#      E
Tomorrow I'm 'gonna be by your side

Sure enough to this woman came home to me
Silver wings silhouetted against a child's sunrise
And my angel she said unto me
today is the day for you to rise
Take my hand come you're gonna be my man
and she took me high over yonder
(Chorus)

Well, I don't know how the tab is going to look, since I only
wrote it in Windows Notepad. But if you line up the chords
and bars vertically, all the licks should fall into place.
This song was originally played through a Leslie speaker,
but sounds fine through a phaser or flanger.

-----

I've only tabbed the intro yet. The rest will follow later.
The whole song is played with the guitar tuned down a half step.
A Leslie is used to get the 'spacy sound'. This effect can be
emulated with a chorus pedal at a medium slow rate.

Eb|0--0-------0------------0----|0---------------0-------------|
Bb|7-----7----7----7-------7s5--|5---5--------5--5--5----------|
Gb|4--------4---4--4------------|2---2--------2--2--2s4--------|
Db|6--------6---6--------6------|4------4--4-----4--4----------|
Ab|6-----------------6----------|4------4--4-------------------|
Eb|0-------------------0--------|0---------0-------------------|

Eb|0-----0--0----0---0---0------|0------------------------0----|
Bb|7-----7--7----12--12--14--14-|5---------------------5--5----|
Gb|4-----4--4----9---9---11--11-|2------2--------------2--2----|
Db|6--6-----6----11--11--13--13-|4--4---------4--------4-----4-|
Ab|--------------11--11---------|4---------4-----4-----------4-|
Eb|-----------------------------|0------------------0----------|

 

 

 
 
 
     
 
 
 

инженеров.netДомашняя страницаНезависимый морской сайтПортал для гитаристовПриколы, юмор, анекдоты

 
обновлен 24.12.2011
в сети с 06.03.2004
 
 
Неофициальный морской сайт Домашняя страница Яндекс цитирования Internet Map Rambler's Top100
Учет посещений на народе

все тексты песен являются собственностью их автора. песени взяты из открытых источников. на сайте размещены с целью ознакомления. при использовании материалов сайта ссылка на сайт обязательна.

по всем вопросам стучитесь в асю или пишите на электропочту

идея, дизайн, редактирование Леха ZaG Загрядский

zagstudio