Аккорды для всех - сайт народных аккордов
 
Аккорды и тексты песен
Guitar Pro табулатуры
Уроки игры на гитаре
Таблица аккордов
Бесплатные программы для музыкантов
Фотографии музыкантов
Видеоклипы
Каталог ссылок
Обратная связь
На главную страницу
 
 
     
 
 

Аккорды, песни, текст, табулатура



Hendrix Jimi - Killing Floor 


Riff 1
E|---------------------------------|
B|---------------------------------|
G|---------------------------------|
D|---------------------------------|
A|---------5-5-6-6-7-7-7-7-7-7-7-7-|
E|-5-5-8-8-----------0-0-0-0-0-0-0-|

 Riff 2
E|---------------------------|
B|-----------7-5-------------|
G|-----------7-5-------------|
D|-7-7-7-5-5-7-5-------------|
A|-7-------------7-7-5-5-----|
E|-5---------------------8-8-|

 Riff 3
E|----------------------------------------|
B|----------------12-10-------------------|
G|----------------12-10-------------------|
D|-12-12-12-10-10-12-10-------------------|
A|-12-------------------12-12-10-10-------|
E|-10-------------------------------13-13-|

 Riff 4
E|-------------------------------------------------------------|
B|-------------------------------------------------------------|
G|-9-9-9-7-7-----7-7-7-5-5-------------------------------------|
D|-9---------9-9-7---------7-7---------------------------------|
A|-7-------------5---------------------5-5-6-6-7-7-7-7-7-7-7-7-|
E|-----------------------------5-5-8-8-----------0-0-0-0-0-0-0-|

Jimi alternates between playing the lead riffs and the 12 bar
blues. 12 bar blues in A minor which goes with the riffs -
brackets show which riff this section goes with: in this case
the chords are A, D and E.

(Goes with riff 2)
E|---------------------------------|
B|---------------------------------|
G|---------------------------------|
D|---------------------------------|
A|-7-7-9-7-7-7-9-7-7-7-9-7-7-7-9-7-|
E|-5-5-5-5-5-5-5-5-5-5-5-5-5-5-5-5-|

(Goes with riff 3)
E|---------------------------------|
B|---------------------------------|
G|---------------------------------|
D|-7-7-9-7-7-7-9-7-7-7-9-7-7-7-9-7-|
A|-5-5-5-5-5-5-5-5-5-5-5-5-5-5-5-5-|
E|---------------------------------|

(Goes with riff 4)
E|-------------------------------------------------------------|
B|-------------------------------------------------------------|
G|-------------------------------------------------------------|
D|99-11-99-9-11-9-7-7-9-7-7-7-9-7------------------------------|
A|77-7--77-7-7--7-5-5-5-5-5-5-5-5-------5-5-6-6-7-7-7-7-7-7-7-7|
E|-------------------------------5-5-8-8--------0-0-0-0-0-0-0-0|

The order goes like this:

Intro : Start off with some small solo then do riff 1
(no 12 bar blues behind this riff, it's the turn around riff)

:beginning
riff 2
riff 2
riff 3
riff 2
riff 4
goto beginning

 

 

 
 
 
     
 
 
 

инженеров.netДомашняя страницаНезависимый морской сайтПортал для гитаристовПриколы, юмор, анекдоты

 
обновлен 24.12.2011
в сети с 06.03.2004
 
 
Неофициальный морской сайт Домашняя страница Яндекс цитирования Internet Map Rambler's Top100
Учет посещений на народе

все тексты песен являются собственностью их автора. песени взяты из открытых источников. на сайте размещены с целью ознакомления. при использовании материалов сайта ссылка на сайт обязательна.

по всем вопросам стучитесь в асю или пишите на электропочту

идея, дизайн, редактирование Леха ZaG Загрядский

zagstudio