Аккорды для всех - сайт народных аккордов
 
Аккорды и тексты песен
Guitar Pro табулатуры
Уроки игры на гитаре
Таблица аккордов
Бесплатные программы для музыкантов
Фотографии музыкантов
Видеоклипы
Каталог ссылок
Обратная связь
На главную страницу
 
 
     
 
 

Аккорды, песни, текст, табулатура



Hendrix Jimi - Izabella


(Uni-Vibe & Fuzz Face throughout)
Intro:
    4x
E||---------------------||-------------------||---------|
B||-10--------10-10--10-||---12--10(11)------||---------|
G||-11--------10-10--11-||---12--10(11)------||---------|
D||-12--------10-10--12-||---12--------12-10-||---3-4-5-|
A||---------------------||-------------------||-5-------|
E||----10--13-----------||-10----------------||---------|

Verse:

E|------------------------------------------------|
B|------------------------------------------------|
G|-----------3(4)---------------------------------|
D|-5p3h5p3h5------5p3h5-----5--5p3---5p3----5p3---|
A|---------------------------------5-----5------5-|
E|----------------------3-------------------------|

E|---------------------------------------------------------|
B|--------------8(9)---------------------------------------|
G|--------------8(9)---------------------------------------|
D|-10p8h10p8h10------10p8h10----10-10p8----10p8----10p8----|
A|--------------------------------------10------10------10-|
E|---------------------------8-----------------------------|

E|----------------------------------|
B|----------------------------------|
G|-10-10-10-10-10----10-10-10-10-10-|
D|----------------------------------|
A|--8--8--8--8--8-----8--8--8--8--8-|
E|----------------------------------|

E|------------------|
B|------------------|
G|------------------|
D|---2-3-4----------|
A|-3--------3-------|
E|------------0-1-2-|


Verse chords:
   G#9  C#9  F
E|--------------|
B|-11---4-------|
G|-10---3---10--|
D|--9---2-------|
A|-10---3----8--|
E|--------------|

Bridge:
E|------------------------------------------|
B|------------------------------------------|
G|------------------------------------------|
D|-------3--5p3h5p3-----------3-3p2h3p2h3p2-|
A|---2-5------------5-----2-5---------------|
E|-3--------------------3-------------------|

E|----------------------------------------------|
B|----------------------------------------------|
G|----------------------------------------------|
D|--------8-10p8h10p8-------------8-8p7h8p7h8p7-|
A|---7-10-------------10-----7-10---------------|
E|-8-----------------------8--------------------|

E|------------------------------------------|
B|------------------------------------------|
G|------------------------------------------|
D|----------15-17p15h17p15--------------15~-|
A|----14-17----------------17-----14-17-----|
E|-15--------------------------15-----------|

E|------------------------------------------------------|
B|------------------------------------------------------|
G|------------------------------------------------------|
D|----------13-15p13h15p13h15p13---------8-10p8h10p8----|
A|----12-15-------------------------7-10-------------10-|
E|-13-----------------------------8---------------------|

E|--------------------------|
B|--------6~------6------6~-|
G|----4-7-----4-7----4-7----|
D|--5-----------------------|
A|--------------------------|
E|--------------------------|

solo:
E|-----------------------------------------|
B|-8(10)-(10)8p6-8(10)-8(10)~--8(10)8------|
G|------------------------------------7----|
D|--------------------------------------8~-|
A|-----------------------------------------|
E|-----------------------------------------|

E|--------------------------------------------------|
B|---0------6-8-8(10)-8(10)~~~~~~~-8(10)8-6---------|
G|---0----7---------------------------------7-5-3~~-|
D|-5------------------------------------------------|
A|--------------------------------------------------|
E|--------------------------------------------------|

E|-------------------------------------------------------|
B|-------------------------------------------------------|
G|-3-5(7)5---3~---------3~----------------------5(7)~~~~-|
D|---------7-----0--3/5-----5p3h5p3h5~-------------------|
A|-------------------------------------5-31--------------|
E|-------------------------------------------3-----------|

E|-------------------------------------------------------------|
B|------3-6p3------------3~--7---------------------------------|
G|-5(7)-------5p3---5(7)-----8(10)~~--5(7)5p3---3h5------------|
D|----------------5---------------------------5-----5----------|
A|-------------------------------------------------------------|
E|----------------------------------------------------3~~~~~~--|

E|-----------------------------------------------|
B|-3-------------3---------------3---------------|
G|-5(7)~~~~~~~5--5(7)~~~~~~~~5---5(7)~~~~~~~~~~5-|
D|-----------------------------------------------|
A|-----------------------------------------------|
E|-----------------------------------------------|

E|------------------------3---------------3--------------------|
B|5-------------------6p3-------6p3-----3---6(8)~-6p3----------|
G|7(9)7-7p6p5-3(4)-3-5------5(7)----5(7)--------------5p3---3--|
D|----------------5---------------------------------------5---5|
A|-------------------------------------------------------------|
E|-------------------------------------------------------------|

E|-------------------3--------------6-------------|
B|-----------------3---6p3------3---8(10)8-6---6~-|
G|------------5(7)---------5(7)--------------7----|
D|-3----------------------------------------------|
A|---5---1----------------------------------------|
E|---------3--------------------------------------|

E|----------------|
B|----------------|
G|-/15~~~-17-15~--|
D|----------------|
A|----------------|
E|----------------|
  4x
E|-------------------------------------------------------------|
B|--------------15(16)--------17(18)--------18~-18p15----------|
G|--------------15(16)--------17(18)------------------17-15----|
D|17p15h17p15h17------17p15h17------17p15h17----------------17~|
A|-------------------------------------------------------------|
E|-------------------------------------------------------------|
   3x
E|------------------|
B|-------------18~~-|
G|------------------|
D|-17p15h17p15------|
A|------------------|
E|------------------|

Hey Izabella
Girl, I'm holding you in my dreams, every night
Yeah, but you know good and well baby
You know we got this war to fight
Well I'm callin' you under fire
Well I hope you're receiving me all right

Hey Izabella, Izabella
Girl, I'm fightin' this war for the children and you
Izabella, yeah, yeah, yeah, baby
Izabella
All this blood is for the world of you
Izabella, all your love
So I hope you save your love, baby
Then I know the fightin' is true

Izabella
Hey Izabella, whoa Izabella
Put on the rays of the rising sun
Whoa Izabella, here they come
Well I got back out there and fight now baby
Whoa Izabella
I got to cling to the devils on the run
Whoa Izabella, on the run baby
Whoa Izabella,
So keep those dreams comin' in strong
Soon I'll be holding you instead of this machine gun
Izabella

Hey, Izabella, Izabella
Ahh, sweet lover, Izabella
Save all my blood for you
Izabella, Izabella, Izabella, Izabella
Whoa, whoa

 

 

 
 
 
     
 
 
 

инженеров.netДомашняя страницаНезависимый морской сайтПортал для гитаристовПриколы, юмор, анекдоты

 
обновлен 24.12.2011
в сети с 06.03.2004
 
 
Неофициальный морской сайт Домашняя страница Яндекс цитирования Internet Map Rambler's Top100
Учет посещений на народе

все тексты песен являются собственностью их автора. песени взяты из открытых источников. на сайте размещены с целью ознакомления. при использовании материалов сайта ссылка на сайт обязательна.

по всем вопросам стучитесь в асю или пишите на электропочту

идея, дизайн, редактирование Леха ZaG Загрядский

zagstudio