Аккорды для всех - сайт народных аккордов
 
Аккорды и тексты песен
Guitar Pro табулатуры
Уроки игры на гитаре
Таблица аккордов
Бесплатные программы для музыкантов
Фотографии музыкантов
Видеоклипы
Каталог ссылок
Обратная связь
На главную страницу
 
 
     
 
 

Аккорды, песни, текст, табулатура



Hendrix Jimi - Highway Chile


Intro:

  2X
E|-----------------------------------------|
B|-9--------8------8-------8-------6-------|
G|-11(13)~--10(12)-10(12)--10(12)--8(10)~--|
D|-----------------------------------------|
A|-----------------------------------------|
E|-----------------------------------------|

  2X
E|-----------------------------------------|
B|-13-------11-----11------11------9-------|
G|-15(17)~--13(15)-13(15)--13(15)--11(13)~-|
D|-----------------------------------------|
A|-----------------------------------------|
E|-----------------------------------------|

Verse:
  Fm
E|---------------------|
B|---1-----------------|
G|---1-----------------|
D|---3-1---1t3---------|
A|-------3-------1-2-3-|
E|-1-----------4-------|

 C#7#9
E|-0-|
B|-5-|
G|-4-|
D|-3-|
A|-4-|
E|---|

  G#
E|-4-6-4-6-4-6-4-6-4-6-4-6-4-6-4-6-|
B|-4-4-4-4-4-4-4-4-4-4-4-4-4-4-4-4-|
G|-5-5-5-5-5-5-5-5-5-5-5-5-5-5-5-5-|
D|---------------------------------|
A|---------------------------------|
E|---------------------------------|

  A#
E|-6-8-6-8-6-8-6-8-6-8-6-8-6-8-6-8-|
B|-6-6-6-6-6-6-6-6-6-6-6-6-6-6-6-6-|
G|-7-7-7-7-7-7-7-7-7-7-7-7-7-7-7-7-|
D|---------------------------------|
A|---------------------------------|
E|---------------------------------|

repeat first part of intro

second verse

repeat intro

Solo:

E|---------13------------------------------13------------------|
B|-------13--16(18)~-(18)--13-13~--------13--16(18)--13-13~----|
G|-15(17)----------------15--------15(17)----------15(17)------|
D|-------------------------------------------------------------|
A|-------------------------------------------------------------|
E|-------------------------------------------------------------|

E|---------13----------------13----------------13--------------|
B|-------13--16(18)~-------13--16(18)~-------13--16(18)~-16p13-|
G|-15(17)------------15(17)------------15(17)------------------|
D|-------------------------------------------------------------|
A|-------------------------------------------------------------|
E|-------------------------------------------------------------|

E|-------|
B|--13~--|
G|15(17)-|
D|-------|
A|-------|
E|-------|

E|---------13---------13---------13------------------13--------|
B|-------13---------13---------13--16(18)(18)~-----13----------|
G|-15(17)-----15(17)-----15(17)---------------15(17)-----------|
D|-------------------------------------------------------------|
A|-------------------------------------------------------------|
E|-------------------------------------------------------------|

E|-------13-------------|
B|-----13---16(18)(18)~-|
G|15(17)----------------|
D|----------------------|
A|----------------------|
E|----------------------|

E|---------13-------16p13------16p13-------------------13------|
B|-------13---16p13------16(18)-----16(18)(18)~------13--------|
G|-15(17)--------------------------------------15(17)----------|
D|-------------------------------------------------------------|
A|-------------------------------------------------------------|
E|-------------------------------------------------------------|

E|--------13------------|
B|------13--16(18)(18)~-|
G|15(17)----------------|
D|----------------------|
A|----------------------|
E|----------------------|

E|---------13---------13------------------13-------------------|
B|-------13---------13--16(18)(18)~-----13---16(18)(18)(18)~---|
G|-15(17)-----15(17)---------------15(17)----------------------|
D|-------------------------------------------------------------|
A|-------------------------------------------------------------|
E|-------------------------------------------------------------|

E|--------13--------13--------13--------13---------------------|
B|------13--------13--------13--------13---13-----13-----13----|
G|15(17)----15(17)----15(17)----15(17)-----15(17)-15(17)-15(17)|
D|-------------------------------------------------------------|
A|-------------------------------------------------------------|
E|-------------------------------------------------------------|

Third verse

repeat intro

Outro:

E|-----------------------------------------|
B|-13-------11-----11------11------9-------|
G|-15(17)~--13(15)-13(15)--13(15)--11(13)~-|
D|-----------------------------------------|
A|-----------------------------------------|
E|-----------------------------------------|

E|-13--------------------------------------|
B|-16(18)~--13-----11-----11-----9---------|
G|----------15(17)-13(15)-13(15)-11(13)----|
D|-----------------------------------------|
A|-----------------------------------------|
E|-----------------------------------------|

Lyrics:

Fm
Yeah! His guitar slung across his back
His dusty boots is his cadillac
Flamin' hair just a-blowin' in the wind
ain't seen a bed in so long it's a sin
C#7#9
He left home when he was seventeen
The rest of the world he was gonna see
Fm
And everybody knows the boss
a rollin' stone gathers no moss

G#
Now you'd probably a-call him a tramp
A#
But it goes a little deeper than that
Fm
He's a highway chile
Highway Chile

Fm
Some people say he had a girl back home
who messed around and did her baby wrong
They tell it kinda hurt him bad
Kinda made him feel pretty sad
I couldn't say what went through his mind
Anyway he left the world behind
Everybody knows the same old story
in love or war you can lose your glory

G#
Now you'd probably a-call him a tramp
A#
But I know it goes a little deeper than that
He's a highway chile

Walk on brother

C#7#9
His old guitar slung across his back
His dusty boots is his cadillac
Fm
Flamin' hair just a-blowin' in the wind
ain't seen a bed in so long it's a sin

G#
Now you'd probably a-call him a tramp
A#
But I know it goes a little deeper than that
He's a highway chile

Walk on brother
Don't let no one stop you
Highway Child

 

 

 
 
 
     
 
 
 

инженеров.netДомашняя страницаНезависимый морской сайтПортал для гитаристовПриколы, юмор, анекдоты

 
обновлен 24.12.2011
в сети с 06.03.2004
 
 
Неофициальный морской сайт Домашняя страница Яндекс цитирования Internet Map Rambler's Top100
Учет посещений на народе

все тексты песен являются собственностью их автора. песени взяты из открытых источников. на сайте размещены с целью ознакомления. при использовании материалов сайта ссылка на сайт обязательна.

по всем вопросам стучитесь в асю или пишите на электропочту

идея, дизайн, редактирование Леха ZaG Загрядский

zagstudio