Аккорды для всех - сайт народных аккордов
 
Аккорды и тексты песен
Guitar Pro табулатуры
Уроки игры на гитаре
Таблица аккордов
Бесплатные программы для музыкантов
Фотографии музыкантов
Видеоклипы
Каталог ссылок
Обратная связь
На главную страницу
 
 
     
 
 

Аккорды, песни, текст, табулатура



Hendrix Jimi - Hey Joe


Whole song goes like:  C G D A E  (I think so),
 and the solo goes in Em blues (I think so)

 solo:
e|----0-----------------0--------------------------------------|
B|3/5---3-0---------3/5---3-0-------------------------------0--|
G|----------2/4---0-----------2/4-4-2-0-2-0---0---0---------0--|
D|--------------2---------------------------2---2-------0-2---2|
A|--------------------------------------------------1/2--------|
E|-------------------------------------------------------------|

e|---------0-0-0-----0-0-0-------------------0-3/5-3-0-------0-|
B|-3/5-3/5-0-3-0-----0-3-0-----------------0---------------3---|
G|---------------2/4-------2/4-----2-0-2/4-------------2/4-----|
D|-----------------------------0-2-----------------------------|
A|-------------------------------------------------------------|
E|-------------------------------------------------------------|

E|-----------|
B|-----------|
G|-2/4-2-0---|
D|---------2-|
A|-----------|
E|-----------|

e|-----------------|
B|------------0----|
G|------------0----|
D|------0--2-----2-|
A|-1/2-------------|
E|-----------------|

 end riff:
e|------------------------------------------------------|
B|------------------------------------------------------|
G|------------------------------------------------------|
D|------------------------------------------------------|
A|--3--------------2--3--4--5--------------4--5--6--7---|
E|-----0--1--2--3--------------2--3--4--5---------------|

C    G   D    A                        E
Hey Joe,uh, where you goin' with that gun in your hand?
C    G   D       A                        E
Hey Joe,I said,where you goin'with that gun in your hand.Alright
C                   G              D
I'm goin' down to shoot my old lady,you know,
   A                              E
I caught her messin' round with another man.Yeah!
I'm goin' down to shoot my old lady,you know,
I caught her messin' round with another man.
E
Huh! And that ain'too cool.

C    G   D   A                  E
Hey Joe, I heard you shot your woman down you shot her down now
C        G  D   A
Uh, hey Joe,I heard you shot your old
 E
lady down,you shot her down in the ground
C            G              D
Yeah! Yes I did, I shot her, you know
    A
I caught her messin' round, messin' round town.
C           G             D
Uh, Yes I did, I shot her, you know
    A                             E
I caught my old lady messin' round town
E
And I gave her the gun, I shot her!

C    G           D   A
Hey Joe, said now, where you gonna run
 E
to now, where you gonna to?
?
Hey Joe,I said where you gonna run to now,
where you,where you gonna run to?
            C     G         D
Well dig it! I'm goin' way south,
 A           E
way down to Mexico way! Al-right!
C              G        D  A
I'm goin' way down south,way down where
   E
I can be free! Ain't no one gonna find me babe!

C         G           D            A                E
Ain't no hang man gonna, he ain't put a rope around me!
You better believe it right now! I gotta go now
C        G     D             A          E
Hey,hey,hey Joe, you better run on down! Goodbye everybody,Ow!
C    G                  D    A      E
Hey, hey Joe, what'd I say, run on down!

 

 

 
 
 
     
 
 
 

инженеров.netДомашняя страницаНезависимый морской сайтПортал для гитаристовПриколы, юмор, анекдоты

 
обновлен 24.12.2011
в сети с 06.03.2004
 
 
Неофициальный морской сайт Домашняя страница Яндекс цитирования Internet Map Rambler's Top100
Учет посещений на народе

все тексты песен являются собственностью их автора. песени взяты из открытых источников. на сайте размещены с целью ознакомления. при использовании материалов сайта ссылка на сайт обязательна.

по всем вопросам стучитесь в асю или пишите на электропочту

идея, дизайн, редактирование Леха ZaG Загрядский

zagstudio