GUNS N' ROSES 'Used To Love Her' from the album 'GNR Lies'

 

transcribed by Denes Pinter

 

GNR: Used to love her

first solo:

|-------10----------------------------------------------------------|

|----------10------------------------------10-----------------10-7--|

|-9b11--------11r9-7--9---------7-7---9-7-----9b11--9-----9-7-------|

|-----------------------------9-------------------------------------|

|-------------------------------------------------------------------|

|-------------------------------------------------------------------|

 

|-------10-------10-------10----12b14---12-10-12-12v----12-10-x--17-_____-----|

|-10h12----10h12----10h12----10-------------------------------------17b19-17--|

|-----------------------------------------------------------------------------|

|-----------------------------------------------------------------------------|

|-----------------------------------------------------------------------------|

|-----------------------------------------------------------------------------|

 

|----------_____-14-15-16-17-----_____-------------17b19---17------____-----------|

|-15-17-15-17b19-------------19_r17p15----17----15------------19_r17p15-17----15v-|

|--------------------------------------16----16----------------------------16-----|

|---------------------------------------------------------------------------------|

|---------------------------------------------------------------------------------|

|---------------------------------------------------------------------------------|

______

|-----_____----------------17b19---b19-b19-b19r17-------------17---------17-|

|-19_r17p15-17-15-17----15----------------------------17b19------17b19------|

|--------------------16-----------------------------------------------------|

|---------------------------------------------------------------------------|

|---------------------------------------------------------------------------|

|---------------------------------------------------------------------------|

 

|---------17------_____------------------------10---10----------------------|

|-17b19------b19_r17p15-17----15-17-15----15---10---10---12-------------13--|

|--------------------------16----------16----------------12-10-11-------11--|

|-----------------------------------------------------------------12-12-----|

|---------------------------------------------------------------------------|

|---------------------------------------------------------------------------|

 

second solo:

|----------10----------------------------------------------------------------|

|-------13----13---------------10---10---8-------8---8h10-8--------10---10---|

|----11----------11----11----9----9----9---7---7---7--------7---------9--9---|

|-12----------------12----11-----------------9----------------9/11------11---|

|----------------------------------------------------------------------------|

|----------------------------------------------------------------------------|

 

|---------------------------------------------------------------------------|

|-------------------------------------------------7-7-----8-8-7---10-10-7---|

|---------------------------------7-7-----9-9-7-------9-7-------9---------9-|

|---------------------7---9-7---------9-------------------------------------|

|-----5---7-7-5---7-9---------9---------------------------------------------|

|-5h7-----------------------------------------------------------------------|

 

|---------_____-----------------------------------------------|

|-8---7---7p5h7--------7-10-----------------------------------|

|---------?!?!?-9b11--------10-9-7---9b10---9-----7---9---7---|

|----------------------------------9--------------------------|

|-------------------------------------------------------------|

|-------------------------------------------------------------|

 

|---------10-10---------10-10---------10-10---------10-10----------------------------------|----|

|-10b12---------10b12---------10b12---------10b12---------12_r10p8-10---10-----8---10---8--|----|

|------------------------------------------------------------------------------------------|-0/-|

|------------------------------------------------------------------------------------------|-/0-|

|------------------------------------------------------------------------------------------|----|

|------------------------------------------------------------------------------------------|----|

 

|---------7-10---------------------------------------------------------------------------------------|

|-10b12--------12r10-8-10--------7-10------------------------------------------------------10--------|

|-------------------------9b11--------11r9-7---9-7-----9b10-----10r9p7---9-----7v----9--7------11r9--|

|--------------------------------------------9-----9-7-----------------9----9------------------------|

|----------------------------------------------------------------------------------------------------|

|----------------------------------------------------------------------------------------------------|

 

|------------------------|

|------------------------|

|------------------------|

|-9--7------7------------|

|-------7/9-----9\7---7--|

|------------------------|

Tr: P.D. march 31, 1997