GUNS N' ROSES 'Dont Cry' from the album 'Use Your Illusion I'

 

 

 

Am Dm G C G/B (c b)

Talk to me softly there's something in your eyes

Don't hang your head in sorrow and please don't cry

I know how you feel inside and I've been there before

Something' changing' inside you and don't you know

 

F G Am

Don't you cry tonight, I still love you baby

 

F G Am

Don't you cry tonight

 

F G C G Am

Don't you cry tonight, there's a heaven above you baby,

 

F G Am

And don't you cry tonight

Give me a whisper and give me a sigh

Give me a kiss before you tell me goodbye

Don't you take it so hard now and please don't take it so bad

I'll still be thinking of you and the times we had baby

And don't you cry...

 

 

solo:

 

|------------------------------------------------------------------------------|

|------___------------___-----8----------------8--8----------------------------|

|-7b9_r7p5-7v----7b9_r7p5-7b9__----b9_r7p5-7b9_____--9r7-5---------------------|

|------------------------------------------------------------7v---5------------|

|---------------------------------------------------------------------b6r5--3--|

|------------------------------------------------------------------------------|

 

|-----------------------------------------------------------------------------------------------------------------|

|--------------------------------------13b17__r13-----------------------------------------------------------------|

|-7/9-9/11------------------------12-14-------------14v---12-----------------_____--------------------------------|

|-------------------10h12-12/14-------------------------------14-13h14p13p12-14\12--10--12p10-------10------------|

|-5/7-7/8-8/10-10h12--------------------------------------------------------------------------12p10-----12p10-12v-|

|-----------------------------------------------------------------------------------------------------------------|

 

|---------15-15-15-------------------15-15---------------------------------------------13------------------|

|-15b17___________-17r_15p13-15b17________-17r15p13-12--------12-13b15--13-12-13-----------13-15b17---15v--|

|----------------------------------------------------------13---------------------14-----------------------|

|------------------------------------------------------14----------------------------15--------------------|

|----------------------------------------------------------------------------------------------------------|

|----------------------------------------------------------------------------------------------------------|

 

|------------____-5------------------|

|-17r15p13-8-8b10---8-5--------7b_8--|

|-----------------------b8r7-5-7b_8--|

|------------------------------------|

|------------------------------------|

|------------------------------------|