-
 
Guitar Pro
 
 
     
 
 

, , ,



Elvis Presley- Love me tender

 

 

Guitare

Album "Pure Gold"

 

 

 

D E7 A7

E||-------2---------2----||--------2---------2----|-------0---------0----|-------0---------0----|

B||-------3---------3----||--------3---------3----|-------3---------3----|-------2---------2----|

G||-------2---------2----||*-------2---------2----|-------1---------1----|-------0---------0----|

D||--0--------------0----||*--0--------------0----|-------2---------2----|-------2---------2----|

A||------------0---------||-------------0---------|-------2----2---------|--0---------0---------|

E||----------------------||-----------------------|--0-------------------|----------------------|

 

 

D D F# Bm D7 Gm Gm6

-------2---------2-----||-------2---------2----|-------2---------2----|-------3---------3----|

-------3---------3-----||-------3---------2----|-------3---------1----|-------3---------3----|

-------2---------2----*||-------2---------3----|-------4---------2----|-------3---------3----|

--0--------------0----*||--0--------------4----|-------4---------0----|-------5---------2----|

------------0----------||------------4---------|--2---------0---------|-------5--------------|

-----------------------||----------------------|----------------------|--3---------3---------|

 

 

D D B7 E7 A7

-------2---------2----|-------2---------2----|-------0---------0----|-------0---------0----|

-------3---------3----|-------3---------4----|-------3---------3----|-------2---------2----|

-------2---------2----|-------2---------2----|-------1---------1----|-------0---------0----|

--0--------------0----|--0--------------4----|-------2----2----2----|--0--------------2----|

------------0---------|------------2---------|-------2--------------|------------0---------|

----------------------|----------------------|--0-------------------|----------------------|

 

 

D

-------2---------2----|--2---------5----5----|--2----------------||

-------3---------3----|--3-------------------|-------------------||

-------2---------2----|--2----2--------------|-------------------||

--0--------------0----|--0-------------------|-------------------||

------------0---------|----------------------|-------------------||

----------------------|----------------------|-------------------||

 

 

 

 

...

 
 
 
     
 
 
| | | | | | | | | |
 

.net     , ,

 
24.12.2011
06.03.2004
 
 
    Internet Map Rambler's Top100

. . . .

, , ZaG

zagstudio