-
 
Guitar Pro
 
 
     
 
 

, , ,



Elvis Presley- Love Me Tender

 

  

E||-------0---------0----||-----------------------|----------------------|----------------------|

B||-------1---------1----||--------1----0----1----|--3---------3---------|--1----0---------0----|

G||-------0---------0----||*--0---------0---------|-------2--------------|--2---------2---------|

D||----------------------||*-------2---------2----|-------0---------0----|-------3----3---------|

A||--3-------------------||---3-------------------|----------------------|----------------------|

E||------------3---------||-------------3---------|--2---------2---------|--3---------3----3----|

 

 

----------------------|----------------------|----------------------|-----------------------|

--1-------------------|-------1----0----1----|--3---------3---------|--1----0-------0-------|

-------0---------0----|--0---------0---------|---------2------------|--2---------2----------|

-------2---------2----|-------2---------2----|------------0----0----|-------3----3-----3----|

--3-------------------|--3-------------------|----------------------|-----------------------|

------------3---------|----------------------|--2---------2----2----|--3---------3----------|

 

 

----------------------|--0----0----0----0----|--0----0----0----------|--0-------------------|

--1-------------------|--1----1----0----0----|--1----1----1----1-----|--1----3----1----3----|

-------0---------0----|--0----0----1----1----|--2----2----3----3-----|--2---------2---------|

-------2---------2----|----------------------|-----------------------|----------------------|

--3-------------------|--3---------2---------|--0----0----3-------3--|----------------------|

------------3---------|------------0----0----|-----------------------|--1----1----1----1----|

 

 

--0----------------------|--0----0----1----0----|-----------------------|----------------------|

--1-------------1--------|--1----1----1----1----|--3-------3------------|--1----0---------0----|

--1----------1-----1-----|--0-------------------|-------2---------------|------------2---------|

----------0-----------0--|----------------------|-------0----------0----|-------3----3----3----|

-------------------------|--3----3----3----3----|-----------------------|----------------------|

--1----1-----------------|----------------------|--2----------2---------|--3---------3---------|

 

 

-----------------------||------------0---------|--------------0--------0--|--8-----------------||

--1--------------------||--1----0-----------3--|--1--------1--------1-----|--8-----------------||

-------0---------0----*||--2---------0---------|--------0--------0--------|--9-----------------||

-------2---------2----*||-------3-----------3--|-----2--------------------|--10----------------||

--3--------------------||----------------------|--3-----------------------|--------------------||

------------3----------||--3---------3---------|--------------------------|--------------------||

 

 

 

 

...

 
 
 
     
 
 
| | | | | | | | | |
 

.net     , ,

 
24.12.2011
06.03.2004
 
 
    Internet Map Rambler's Top100

. . . .

, , ZaG

zagstudio