-
 
Guitar Pro
 
 
     
 
 

, , ,



Elvis Presley- Can't Help Falling in Love

 

 

 

E||---3-----------7-----------|--3----------------5--7/-|--8-----------7-----------|--5---------------------|

B||---------0-----------7-----|--------0----------------|--------5-----------0-----|--------3----------3----|

G||*-----0-----0-----7-----7--|-----0-----0-------------|-----5-----5-----0-----0--|-----5-----5------------|

D||*--------------------------|-------------------------|--------------------------|--0-----------0---------|

A||---------------------------|-------------------------|--0-----------------------|------------------------|

E||---3-----------7-----------|--0-----------0----------|--------------3-----------|------------------------|

 

 

--0-----------2/----------|--3-----------5----7----8/---|--7-----------5/----------|--3-----------3---------||

--------1-----------1-----|--------0-----5--------------|--------0-----------3-----|--------0-----0---------||

-----0-----0-----2-----2--|-----0-----0--5--------------|-----0-----0-----5-----5--|-----0-----0--0--------*||

--------------0-----------|-----------------------------|--------------0-----------|-----------------------*||

--3-----------------------|--------------0--------------|--------------------------|------------------------||

--------------------------|--0--------------------------|--3-----------------------|--3-----------3---------||

 

 

-----------2--0-----------|-----------2--0-----------|------------------------|--------------------2-----|

--------3-----------------|--------3-----------------|--3----3----------3-----|--1-----------------1-----|

-----4-----------3--3--3--|-----4-----------3--3--3--|--4------------4-----4--|--------0--------2-----2--|

--4--------------4--4--4--|--4--------------4--4--4--|--4---------------------|-----2-----2--0-----------|

--2-----------------------|--2-----------------------|--2---------------------|--0-----------------------|

--------------0-----------|--------------0-----------|------------0-----------|--------------------------|

 

 

----3-3-3---3-3-3---3-3-3---3-3-3---3-3-3---3-3-3/|----7-7-7---7-7-7---7-7-7---7-7-7---7-7-7---7-7-7/|

------------------0---------------0---------------|------------------7---------------7---------------|

----------0---------------0---------------0-------|----------7---------------7---------------7-------|

--------------------------------------------------|--------------------------------------------------|

--------------------------------------------------|--------------------------------------------------|

--3-----------------------------------------------|--7-----------------------------------------------|

 

 

----3-3-3---3-3-3---3-3-3---3-3-3---3-3-3---3-3-3-|-------5--7--|

------------------0---------------0---------------|-------------|

----------0---------------0---------------0-------|-------------|

--------------------------------------------------|-------------|

--------------------------------------------------|-------------|

--0-----------------------------------------------|--0----------|

 

 

----8-8-8---8-8-8---8-8-8---8-8-8---8-8-8---8-8-8/|----7-7-7---7-7-7---7-7-7---7-7-7---7-7-7---7-7-7/|

------------------5---------------5---------------|------------------0---------------0---------------|

----------5---------------5---------------5-------|----------0---------------0---------------0-------|

--------------------------------------------------|--------------------------------------------------|

--0-----------------------------------------------|--------------------------------------------------|

--------------------------------------------------|--3-----------------------------------------------|

 

 

----5-5-5---5-5-5---5-5-5---5-5-5---5-5-5---5-5-5-|------------|

------------------3---------------3---------------|-------3----|

----------5---------------5---------------5-------|------------|

--0-----------------------------------------------|--0---------|

--------------------------------------------------|------------|

--------------------------------------------------|------------|

 

 

----0-0-0---0-0-0---0-0-0---0-0-0---0-0-0---0-0-0-|----2-2-2---2-2-2---2-2-2---2-2-2---2-2-2---2-2-2/|

------------------1---------------1---------------|------------------1---------------1---------------|

----------0---------------0---------------0-------|----------2---------------2---------------2-------|

--------------------------------------------------|--0-----------------------------------------------|

--3-----------------------------------------------|--------------------------------------------------|

--------------------------------------------------|--------------------------------------------------|

 

 

----3-3-3---3-3-3---3-3-3---3-3-3---3-3-3---3-3-3-|--5----7----8/---|

------------------0---------------0---------------|--5--------------|

----------0---------------0---------------0-------|--5--------------|

--------------------------------------------------|-----------------|

--------------------------------------------------|--0--------------|

--0-----------------------------------------------|-----------------|

 

 

----7-7-7---7-7-7---7-7-7---7-7-7---7-7-7---7-7-7/|----5-5-5---5-5-5---5-5-5---5-5-5---5-5-5---5-5-5/|

------------------0---------------0---------------|------------------3---------------3---------------|

----------0---------------0---------------0-------|----------5---------------5---------------5-------|

--------------------------------------------------|--0-----------------------------------------------|

--------------------------------------------------|--------------------------------------------------|

--3-----------------------------------------------|--------------------------------------------------|

 

 

----3-3-3---3-3-3---3-3-3---3-3-3---3-3-3---3-3-3-|--3------------||

------------------0---------------0---------------|--0------------||

----------0---------------0---------------0-------|--0------------||

--------------------------------------------------|---------------||

--------------------------------------------------|---------------||

--3-----------------------------------------------|--3------------||

 

 

 

...

 
 
 
     
 
 
| | | | | | | | | |
 

.net     , ,

 
24.12.2011
06.03.2004
 
 
    Internet Map Rambler's Top100

. . . .

, , ZaG

zagstudio