-
 
Guitar Pro
 
 
     
 
 

, , ,



EAGELS WITCHY WOMAN

B. Leadon & D. Henley

Eagles

INTRO

Electric w/Distortion

|-------------------|------------------|----------------|---------------------|

|-----6h8-----6h8---|----6-------------|---6------------|---------------------|

|-------------------|-------7-----7----|-------7---7----|----5----------------|

|-------------------|------------------|----------------|-------8~--------5---|

|-------------------|------------------|----------------|-----------------5---|

|-------------------|------------------|----------------|---------------------|

|-------------------|------------------|-----------------|--------------------|

|-----6h8-----6h8---|----6-------------|---6-------------|--------------------|

|-------------------|-------7-----7----|-------7---7-----|---5----------------|

|-------------------|------------------|-----------------|---5---8------8/10--|

|-------------------|------------------|-----------------|-------8------------|

|-------------------|------------------|-----------------|--------------------|

Repeat 2 times

|------------------------------|------------------------|

|-------3--3--------5h3--------|----3--3------5-3-------|

|-------3--3--------5h3--------|----3--3------5-3-------|

|-3/5----------5--------------3/5----------5-----------3/5

|------------------------------|------------------------|

|------------------------------|------------------------|

See notes on the chicka at the bottom of the tab

Gm6 D9

Raven hair and ruby lips

Gm7

Sparks fly from her finger tips

D9

Echoed voices in the night

Gm7

She's a restless spirit on an endless flight

Gm7 D7

Hoo Hoo Witchy Woman

C Bb Gm7

See how high she flies

D7

Hoo Hoo Witchy Woman

C Bb Gm7

She got the moon in her eyes

1st SOLO

1

|---------------|------------------------|

|---------------|------------------------|

|--5^r(5)-------|-------5---5~~~~~---5---|

|-----------3---|---5/7------------------|

|---------------|------------------------|

|---------------|------------------------|

|----------------------------------|--------------------|

|----6-----------------------------|------------6/8~~---|

|-------7--5---7-------5-------5---|--------------------|

|--------------------------8-------|---8--5-------------|

|----------------------------------|--------------------|

|----------------------------------|--------------------|

Gm6 D9

She held me spellbound in the night

C Bb Gm7

Dancing shadows and firelight

D9

Crazy laughter in another room

C Bb Gm7

She drove herself to madness with a silver spoon

Gm7 D7

Hoo Hoo Witchy Woman

C Bb Gm7

See how high she flies

D7

Hoo Hoo Witchy Woman

C Bb Gm7

She got the moon in her eyes

2nd SOLO

1

|----------------|---------------------|------------------------------|

|---5^r(5)-5-----|---------------------|-----------------8------6-----|

|---5^r(5)-5-----|-------5-----5~~~~~~-|---5-------------7------5-----|

|-------------3--|--5/7----------------|-----7--5---7-----------------|

|----------------|---------------------|------------------------------|

|----------------|---------------------|------------------------------|

1 1

|-----------------------------|-----------------------|---------------------|

|-----------------------------|-----------------------|---------5-----------|

|----7---5--------------------|--5^-r-^r(5)-----------|---------5------5~~~~|

|-----------8~--5-------------|----------------3~~~~~~~---5/7-------7-------|

|-----------------------------|-----------------------|---------------------|

|-----------------------------|-----------------------|---------------------|

|--------------------------|---------------------------|----------------------|

|------------------8---6---|---------------------------|---------6-8-8----6-8-|

|--5--------5------7---5---|--7---5----------------5---|--5/7-----------------|

|-----7--5-----------------|----------8~---5---8-------|----------------------|

|--------------------------|---------------------------|----------------------|

|--------------------------|---------------------------|----------------------|

|------------------------------|--------------------------|

|-8^---8^---8^---8^-r(8)-6-----|--------------------------|

|---------------------------7--|-7-5---5------------------|

|------------------------------|---------8~--5-----5-8-5--|

|------------------------------|----------------8---------|

|------------------------------|--------------------------|

|-------------------|-8---6------------|----------------------

|----------------6--|---------8-6----6h|8--8--6\3-1-----------

|----5----5/7-------|------------------|------------3----3/5--

|-8-----------------|------------------|----------------------

|-------------------|------------------|----------------------

|-------------------|------------------|----------------------

|---------------------------|-------------6~----------|

|---------------------------|-------6--8------8~~~~~~~|

|--3---2-----------------3--|---5/7-------------------|

|---------3-2-3---3/4/5-----|-------------------------|

|---------------------------|-------------------------|

|---------------------------|-------------------------|

Use this little phrasing after a few aahhs

|----------|

|13b14r13--|

|13b15r13--|

|----------|

|----------|

|----------|

Gm D7 Gm

Ah......Ah....Ah......

C Gm

Well I know you want to love her

Gm7

But let me tell you brother

C Bb Gm7

She's been sleepin' in the devil's bed

And there's rumors goin' round someone's underground

Bb C Gm7

She can rock you in the nighttime until your skin turns red

Gm7 D7

Hoo Hoo Witchy Woman

C Bb Gm7

See how high she flies

D7

Hoo Hoo Witchy Woman

F D C D C Bb C Bb Gm7

She got the moon in her eyes

Play last 2 bars of 1st SOLO

Note on chicka sound

Now throughout the entire song there are "chicka" sounds made by an

electric guitar. If you listen to song you can't miss them.

They are really easy, because there are only a few shapes to them.

To figure out what to play, just match the chords up.

INTRO Gm Gm6 Gm7 D9 D7 C Bb

|-13-------10----10-----10-----10-----10----10---10-|

|-11-------11----11-----11-----10-----10----11---11-|

|-12-------10----12-----12-----11-----11----10---10-|

|---------------------------------------------------|

|---------------------------------------------------|

|---------------------------------------------------|

 

 

...

 
 
 
     
 
 
| | | | | | | | | |
 

.net     , ,

 
24.12.2011
06.03.2004
 
 
    Internet Map Rambler's Top100

. . . .

, , ZaG

zagstudio