Аккорды для всех - сайт народных аккордов
 
Аккорды и тексты песен
Guitar Pro табулатуры
Уроки игры на гитаре
Таблица аккордов
Бесплатные программы для музыкантов
Фотографии музыкантов
Видеоклипы
Каталог ссылок
Обратная связь
На главную страницу
 
 
     
 
 

Аккорды, песни, текст, табулатура



Depeche Mode - In Your Room (Zephyr Mix)


e|----------------------|
B|----------------------|
G|----------------------|
D|---6---4-2----4---2-1-|
A|-4---4------2---2-----|
E|----------------------|

Riff 2
------
e|-------------|
B|-------------|
G|-------------|
D|---2----4-6--|
A|-4----4------|
E|-------------|

Riff 3
------
e|-------------|
B|-------------|
G|-------------|
D|---3----5-3--|
A|-3----3------|
E|-------------|

Riff 4
------
e|-------------|--------------|
B|-------------|--------------|
G|-------------|--------------|
D|---2----4-6--|---2-----4----|
A|-4----4------|-4-----4------|
E|-------------|--------------|

Chorus Chords
-------------
e|-4----|-4---------|-2----|-2----|
B|-5----|-4---------|-2----|-2----|
G|-6----|-6---------|-2----|-2----|
D|-6----|-6---------|-4----|-2----|
A|-4----|-4---------|(4)---|(4)---|
E|-x----|-x---------|(2)---|(2)---|
 | C#m  | C#m sus 2 | F#m  | F#m7 |


Lyrics:
-------

In your room
Where time stands still
Or moves at your will
Will you let the morning come soon
Or will you leave me lying here
In your favourite darkness
Your favourite half-light
Your favourite consciousness
Your favourite slave

In your room
Where souls disappear
Only you exist here
Will you lead me to your armchair
Or leave me lying here
Your favourite innocence
Your favourite prize
Your favourite smile
Your favourite slave

I?m hanging on your words
  living on your breath
  feeling with your skin
  Will I always be here

In your room
Your burning eyes
Cause flames to arise
Will you let the fire die down soon
Or will I always be here
Your favourite passion
Your favourite game
Your favourite mirror
Your favourite slave

I?m hanging on your words
  living on your breath
  feeling with your skin
  Will I always be here

 

 

 
 
 
     
 
 
 

инженеров.netДомашняя страницаНезависимый морской сайтПортал для гитаристовПриколы, юмор, анекдоты

 
обновлен 24.12.2011
в сети с 06.03.2004
 
 
Неофициальный морской сайт Домашняя страница Яндекс цитирования Internet Map Rambler's Top100
Учет посещений на народе

все тексты песен являются собственностью их автора. песени взяты из открытых источников. на сайте размещены с целью ознакомления. при использовании материалов сайта ссылка на сайт обязательна.

по всем вопросам стучитесь в асю или пишите на электропочту

идея, дизайн, редактирование Леха ZaG Загрядский

zagstudio