Аккорды для всех - сайт народных аккордов
 
Аккорды и тексты песен
Guitar Pro табулатуры
Уроки игры на гитаре
Таблица аккордов
Бесплатные программы для музыкантов
Фотографии музыкантов
Видеоклипы
Каталог ссылок
Обратная связь
На главную страницу
 
 
     
 
 

Аккорды, песни, текст, табулатура



Deep Purple - Lasy


Intro

E|-----|
B|-----|
G|-1---|
D|---3-|
A|-----|
E|-----|

E|--------|---------------------|
B|--------|---------------------|
G|--------|---------------------|
D|----1-2/|--3--------------1-2/|
A|-3------|--------------3------|
E|--------|---------------------|

E|--------------------|-------------------------------|
B|--------------------|----------------------------4b-|
G|--------------------|----1---3-1-----1----3-1-------|
D|-3----------------2/|-3----3-----3-1---3------3-----|
A|--------------------|-------------------------------|
E|--------------------|-------------------------------|

E|-----------------1---------------|------|
B|-4b-4-1-4--1---1---1-------------|------|
G|-------------4-------4-3-1---3---|-1----|
D|---------------------------3---3-|----3-|
A|---------------------------------|------|
E|---------------------------------|------|

E|------4--6/7---4--6---|---4-6--7-6-4---6---4-----|
B|---6---------6------6-|-6------------6---6-----7/|
G|-5--------------------|--------------------------|
D|----------------------|--------------------------|
A|----------------------|--------------------------|
E|----------------------|--------------------------|

E|---8b---9--8--6--8---|-4b---4--1-4-----|
B|-6-----------------6-|--------------4r-|
G|---------------------|-----------------|
D|---------------------|-----------------|
A|---------------------|-----------------|
E|---------------------|-----------------|

Rythm

...

E|--------------------------------|
B|--------------------------------|
G|--------------------------------|
D|--------------------------------|
A|--------------------------------|
E|-13-12-11-10-9-8-7-6-5-4-3-1--1-|

E|-8-|
B|-8-|
G|---|
D|---|
A|---|
E|---|

...

E|------------------------|
B|------------------------|
G|----1---3-1-----1---3-1-|
D|-3----3-----3-1---3-----|
A|------------------------|
E|------------------------|

E|-------|-----------------------------------|-------|
B|----4b-|-6--4h6h4---4--------6-------------|----4b-|
G|-------|----------5----5-4h5---5-4-3-1-----|-------|
D|-3-----|-------------------------------3-1-|-3-----|
A|-------|-----------------------------------|-------|
E|-------|-----------------------------------|-------|

E|---------------------------|-------------------------------|
B|---------------------------|-------------------------------|
G|---------------------------|-------------------------------|
D|---1---3-1-----1---3-1-----|---------------------1---------|
A|-3---3-----2-3---3-----3-2/|-3--2-1-2--1---1-2/3---3-1---1-|
E|---------------------------|-------------4-------------4---|

E|---------------------------|---------------------------|
B|---------------------------|---------------------------|
G|---------------------------|---------------------------|
D|----3--1--3------3--1--3---|----3--1--3------3--1--3---|
A|------------3------------3-|------------3------------3-|
E|-1------------1------------|-1------------1------------|

E|--------------------------|--------------------------|-------|
B|--------------------------|--------------------------|-------|
G|----3---1--------3---1--3-|--------------------------|-1---0-|
D|------3----3-------3------|----3---1--3-----3---1--3-|-------|
A|-1------------1-----------|------3------------3------|-------|
E|--------------------------|-1------------1-----------|-------|

E|--------------------|--------------------------|
B|------------------4-|--------------------------|
G|------------------3-|--------------------------|
D|----3---1--3--3---2-|----3---1--3-----3---1----|
A|------3-----------3-|------3------------3----3-|
E|-1------------------|-1------------1-----------|

E|--------------------------|--------------------------|
B|--------------------------|--------------------------|
G|--------------------------|----3---1--------3---1--3-|
D|----3---1--3-----3---1--3-|------3----3-------3------|
A|------3------------3------|-1------------1-----------|
E|-1------------1-----------|--------------------------|

E|--------------------------|------------|--------------------|
B|--------------------------|------------|------------------4-|
G|--------------------------|-1--------0-|------------------3-|
D|----3---1--3-----3---1--3-|------------|----3---1--3--3---2-|
A|------3------------3------|------------|------3-----------3-|
E|-1------------1-----------|------------|-1------------------|

E|--------------------------|--------------------------|
B|--------------------------|--------------------------|
G|--------------------------|--------------------------|
D|----3---1--3-----3---1----|----3---1--3-----3---1--3-|
A|------3------------3----3-|------3------------3------|
E|-1------------1-----------|-1------------1-----------|

E|--------------------------|--------------------------|-------|
B|--------------------------|--------------------------|-------|
G|----3---1--------3---1--3-|--------------------------|-1---0-|
D|------3----3-------3------|----3---1--3-----3---1--3-|-------|
A|-1------------1-----------|------3------------3------|-------|
E|--------------------------|-1------------1-----------|-------|

E|---------------|------------------------|-------|
B|-------------4-|------------------------|----4b-|
G|-------------3-|----1---3-1-----1---3-1-|-------|
D|-3-----------2-|-3----3-----3-1---3-----|-3-----|
A|-------------3-|------------------------|-------|
E|---------------|------------------------|-------|

E|-----------------------------------|-------|
B|-6--4h6h4---4--------6-------------|----4b-|
G|----------5----5-4h5---5-4-3-1-----|-------|
D|-------------------------------3-1-|-3-----|
A|-----------------------------------|-------|
E|-----------------------------------|-------|

E|-----------------------------|-------------------------------|
B|-----------------------------|-------------------------------|
G|-----------------------------|-------------------------------|
D|----1---3-1-----1---3-1------|---------------------1---------|
A|-3----3-----2-3---3-----3--2/|-3--2-1-2--1---1-2/3---3-1---1-|
E|-----------------------------|-------------4-------------4---|

E|---------------------------|---------------------------|
B|---------------------------|---------------------------|
G|---------------------------|---------------------------|
D|----3--1--3------3--1--3---|----3--1--3------3--1--3---|
A|------------3------------3-|------------3------------3-|
E|-1------------1------------|-1------------1------------|

E|--------------------------|--------------------------|------|
B|--------------------------|--------------------------|------|
G|----3---1--------3---1--3-|--------------------------|-1--0-|
D|------3----3-------3------|----3---1--3-----3---1--3-|------|
A|-1------------1-----------|------3------------3------|------|
E|--------------------------|-1------------1-----------|------|

E|--------------------|---------------------------|
B|------------------4-|---------------------------|
G|------------------3-|---------------------------|
D|----3---1--3--3---2-|----3--1--3------3--1--3---|
A|------3-----------3-|------------3------------3-|
E|-1------------------|-1------------1------------|

E|---------------------------|---------------------------|
B|---------------------------|---------------------------|
G|---------------------------|-----3---1--------3---1--3-|
D|----3--1--3------3--1--3---|-------3----3-------3------|
A|------------3------------3-|--1------------1-----------|
E|-1------------1------------|---------------------------|

E|--------------------------|------------|--------------------|
B|--------------------------|------------|------------------4-|
G|--------------------------|-1--------0-|------------------3-|
D|----3---1--3-----3---1--3-|------------|----3---1--3--3---2-|
A|------3------------3------|------------|------3-----------3-|
E|-1------------1-----------|------------|-1------------------|

E|---------------------------|---------------------------|
B|---------------------------|---------------------------|
G|---------------------------|---------------------------|
D|----3--1--3------3--1--3---|----3--1--3------3--1--3---|
A|------------3------------3-|------------3------------3-|
E|-1------------1------------|-1------------1------------|

E|--------------------------|--------------------------|-------|
B|--------------------------|--------------------------|-------|
G|----3---1--------3---1--3-|--------------------------|-1---0-|
D|------3----3-------3------|----3---1--3-----3---1--3-|-------|
A|-1------------1-----------|------3------------3------|-------|
E|--------------------------|-1------------1-----------|-------|

E|---------------|------------------------|-------|
B|-------------4-|------------------------|----4b-|
G|-------------3-|----1---3-1-----1---3-1-|-------|
D|-3-----------2-|-3----3-----3-1---3-----|-3-----|
A|-------------3-|------------------------|-------|
E|---------------|------------------------|-------|

E|-----------------------------------|-------|
B|-6--4h6h4---4--------6-------------|----4b-|
G|----------5----5-4h5---5-4-3-1-----|-------|
D|-------------------------------3-1-|-3-----|
A|-----------------------------------|-------|
E|-----------------------------------|-------|

E|----------------------------|--------------------------------|
B|----------------------------|--------------------------------|
G|----------------------------|--------------------------------|
D|---1---3-1-----1---3-1------|--------------------1-----------|
A|-3---3-----2-3---3-----3--2/|-3-2-1-2--1---1-2/3---3-1---1-3/|
E|----------------------------|------------4-------------4-----|

E|-------------------------------|-------------|
B|-------------------------------|-------------|
G|-------------------------------|-------------|
D|---------------------3---------|----5---3--5-|
A|-5--4-3-4--3-1-3-4/5---5-3-1-3-|-5----5------|
E|-------------------------------|-------------|

E|------------------|------------------|-------------------|
B|------------------|------------------|-------------------|
G|-5b---5--3--------|------------------|----------3--------|
D|------------5-3-5-|------------------|------------5--5-5-|
A|------------------|-3----3----3----3-|-------------------|
E|------------------|-x----x----x----x-|-3-----------------|

E|------------|----------------|----------|
B|------------|--------------6-|----------|
G|-3--------2-|--------------5-|-3--------|
D|------------|-5---3--5-----4-|---5--5-5-|
A|------------|---5----------5-|----------|
E|------------|----------------|----------|

E|--------------------|--------------------|
B|--------------------|--------------------|
G|-----------3--------|-----------3--------|
D|-5---3--5----5--5-5-|-5---3--5----5--3-5-|
A|---5----------------|---3----------------|
E|--------------------|--------------------|

E|----------------------|------------|-------------------------|
B|----------------------|------------|-------------------------|
G|----------------------|-3--------2-|-------------------------|
D|-5---3--5----5---3--5-|------------|----5---3--5----5---3----|
A|---5-----------5------|------------|------5-----------5----5-|
E|----------------------|------------|-3-----------------------|

E|--------------------------|--------------------------|
B|--------------------------|--------------------------|
G|----------------3---------|----------------3---------|
D|----5---3--5--------3-----|----5---3--5--------3-----|
A|------5-----------5---3-1-|------5-----------5---5-1-|
E|-3------------------------|-3------------------------|

E|---------------------------|----------------------|---------|
B|---------------------------|----------------------|---------|
G|-----------------3---------|--------------3-------|-3-----2-|
D|----5---3--5---------3-----|----5---3--5----5-3-5-|---------|
A|-3----3-------3----5---3-5-|------5---------------|---------|
E|---------------------------|-3--------------------|---------|

E|---------------|-6----------------|--------------------|
B|-------------6-|-8----------------|--------------------|
G|-0-----------5-|-7----------------|--------------------|
D|-------------4-|--------5--5----5-|-5--------5----5--5-|
A|-------------5-|--------x--x----x-|-x--------x----x--x-|
E|---------------|--------x--x----x-|-x--------x----x--x-|

E|-----------|----------------------|-----------------|
B|-----------|----------------------|-----------------|
G|-3-------3-|--3--3----------------|-3--------2----3-|
D|-5-------5-|--5--5--------5-----5-|-----------------|
A|-x-------x-|--------------x-----x-|-----------------|
E|-x-------x-|--------------x-----x-|-----------------|

E|-------------|------------------|--------------------------|
B|-------------|------------------|--------------------------|
G|-------------|-------------3----|--------------3-----------|
D|-5-----------|-5---3--5-------5-|----5---3--5-----5---3--5-|
A|------5------|---5--------------|------5------------5------|
E|-----------3-|------------------|-3------------------------|

E|-------------------------|-------------------|------------|
B|-------------------------|-------------------|------------|
G|-------------------------|-----------3-------|-3--------2-|
D|----5---3--5----5---3--5-|-5---3--5----5-3-5-|------------|
A|-3----3-----------3------|---5---------------|------------|
E|-------------------------|-------------------|------------|

E|----------------|--------------------------|
B|--------------6-|--------------------------|
G|-0------------5-|--------------------------|
D|-----3--5-----4-|----5---3--5-----5---3--5-|
A|---5----------5-|------3------------3------|
E|----------------|-3------------3-----------|

E|--------------------------|--------------------------|
B|--------------------------|--------------------------|
G|--------------------------|--------------------------|
D|----5---3--5-----5---3--5-|----5---3--5-----5---3--5-|
A|------3------------3------|------3------------3------|
E|-3------------3-----------|-3------------3-----------|

E|----------------------|------------|------------|
B|----------------------|------------|------------|
G|--------------3-------|-3--------2-|------------|
D|----5---3--5----5-3-5-|------------|-5--------3-|
A|------5---------------|------------|------------|
E|-3--------------------|------------|------------|

E|------------------------------|----------------|
B|---------------------------8b-|-8b-8b-8b-8b-8b-|
G|----5---7-5-----5---7-5-------|----------------|
D|-7----7-----7-5---7-----7-----|----------------|
A|------------------------------|----------------|
E|------------------------------|----------------|

E|--------------------------------------|-------------------|
B|-10--8h10h8---8--------10-------------|----8b-----8b---8b-|
G|------------9----9-8h9----9-8-7-5-----|-------------------|
D|----------------------------------7-5-|-7-----------------|
A|--------------------------------------|-------------------|
E|--------------------------------------|-------------------|

E|--------------------------|------------------------|
B|--------------------------|------------------------|
G|--------------------------|------------------------|
D|----5---7-5-----5---7-5---|------------------------|
A|-7----7-----6/7---7-----7-|-------------0--1--2--3-|
E|--------------------------|-0--1--2--3-------------|

E|----------------------------|---------------------------|
B|----------------------------|---------------------------|
G|----5---7-5-----------------|--------5------------------|
D|------7-----7-5-7--7---5--7-|----7-5---7-5--7--7---5--7-|
A|---------------------5------|-0------------------5------|
E|-5--------------------------|---------------------------|

E|-----------------------------|--------------------------|
B|-----------------------------|--------------------------|
G|----7---5--------5---7-5-----|--------------------------|
D|------7----7-------7-----7-5-|----7---5--7-----7---5----|
A|-5------------5--------------|------7------------7----7-|
E|-----------------------------|-5------------5-----------|

E|-------|--------------------------|--------------------------|
B|-------|--------------------------|--------------------------|
G|-5---4-|--------------------------|--------------------------|
D|-------|----7---5--7-----7---5--7-|----7---5--7-----7---5--7-|
A|-------|------5------------5------|------5------------5------|
E|-------|-5------------5-----------|-5------------5-----------|

E|---------------------------|--------------------------|------|
B|---------------------------|--------------------------|------|
G|-----------------7----5----|--------------------------|-5--4-|
D|----7---5--7-------7-----7-|----7---5--7-----7---5--7-|------|
A|-5----5-------5------------|------5------------5------|------|
E|---------------------------|-5------------5-----------|------|

E|--------|--------------------------|-------------------------|
B|------8-|--------------------------|-------------------------|
G|------7-|--------------------------|--------------5----------|
D|-7----6-|----7---5--7-----7---5--7-|----7---5--7----7-5-7--5-|
A|------7-|------5------------5------|------5------------------|
E|--------|-5------------5-----------|-5-----------------------|

E|--------------------------|--------------------------|-------|
B|--------------------------|--------------------------|-------|
G|--------------------------|--------------------------|-5---4-|
D|----7---5--7-----7---5--7-|----7---5--7-----7---5--7-|-------|
A|------5------------5------|------5------------5------|-------|
E|-5------------5-----------|-5------------5-----------|-------|

E|----------------------------|------------|
B|----------------------------|------------|
G|----------------------------|-5--------4-|
D|----7---5--7---7-5---7----5-|------------|
A|------5------5-----7----7---|------------|
E|-5--------------------------|------------|

E|------------------------------------|------------|
B|------------------------------------|------------|
G|------------------------------------|-5--------4-|
D|-7--5--4----------------------------|------------|
A|----------7--6--5--4--3-----------5-|------------|
E|-------------------------5--3--0----|------------|

Solo

...

E|------------------------|-------|
B|------------------------|----4b-|
G|----1---3-1-----1---3-1-|-------|
D|-3----3-----3-1---3-----|-3-----|
A|------------------------|-------|
E|------------------------|-------|

E|-----------------------------------|--------|
B|-6--4h6h4---4--------6-------------|-----4b-|
G|----------5----5-4h5---5-4-3-1-----|--------|
D|-------------------------------3-1-|--3-----|
A|-----------------------------------|--------|
E|-----------------------------------|--------|

E|-----------------------------|-------------------------------|
B|-----------------------------|-------------------------------|
G|-----------------------------|-------------------------------|
D|----1---3-1-----1---3-1------|---------------------1---------|
A|-3----3-----2-3---3-----3--2/|-3--2-1-2--1---1-2/3---3-1---1-|
E|-----------------------------|-------------4-------------4---|

E|-----------------|---------------------------------1-|
B|-----------------|-------------------------------1---|
G|-3b-3b-----3b-3b-|-3-4-3-1----1---3-1---1------3b----|
D|-----------------|---------3----3-----3--------------|
A|-----------------|-----------------------------------|
E|-----------------|-----------------------------------|

E|---------------------------8b-|-8-6h5h4---6-4h6h4------------|
B|-4-1---------------4/6---6----|---------6-----------4-6--6-6-|
G|-----4-3-1---3---1-----7------|-------------------5----------|
D|-----------3---3--------------|------------------------------|
A|------------------------------|------------------------------|
E|------------------------------|------------------------------|

E|-------------------------------4---|-4-6b--6-4---4-6---------|
B|-6-4---4-6-6-4---4-6-6-4---4-6---6-|-----------6-----------5/|
G|-----5---------5---------5---------|------------------3b-----|
D|-----------------------------------|-------------------------|
A|-----------------------------------|-------------------------|
E|-----------------------------------|-------------------------|

E|---4-6-7h6h4-6-4-7--6--5/|-4-6-7-6---4-4h6h7h4---4-4h6h7h4---|
B|-6-----------------------|---------6-----------6-----------6-|
G|-------------------------|-----------------------------------|
D|-------------------------|-----------------------------------|
A|-------------------------|-----------------------------------|
E|-------------------------|-----------------------------------|

E|-4-4h6h7h4---4-4h6h7h4-------6-4-----------|
B|-----------6-----------6---6-----6-4-1-----|
G|---------------------------------------3-1-|
D|-------------------------------------------|
A|-------------------------------------------|
E|-------------------------------------------|

E|--------------------------------1-|--------------------------|
B|------------------------------1---|-4-1------------------1---|
G|-1/3-1-3-1-----1---3-1---1--3b----|-----4-3-1---1-3-1/3----3-|
D|------3----3-1---3-----3----------|-----------3---------3----|
A|----------------------------------|--------------------------|
E|----------------------------------|--------------------------|

E|----------------------------|--------------------------------|
B|----------------------------|1-------1--------1--------1-----|
G|1---3---3-1---1---3-1------3|-3-1--3b-3-1---3b-3-1---3b-3-1--|
D|--3---3-----3---3-----3-1---|----3--------3--------3--------3|
A|--------------------------3-|--------------------------------|
E|----------------------------|--------------------------------|

E|-------------------------------------------------|
B|-------------------------------------------------|
G|-----3-6-5-3-5-4-3-----------3-6-5-3-5-4-3-------|
D|-5-6---------------6-5-3-5-6---------------6-5-3-|
A|-------------------------------------------------|
E|-------------------------------------------------|

E|-------------------------------------------------|
B|-------------------------------------------------|
G|-----3-6-5-3-5-4-3-6-5-3-5-4-3-6-5-3-5-4-3-6-5-3-|
D|-5-6---------------------------------------------|
A|-------------------------------------------------|
E|-------------------------------------------------|

E|--------------------------------------|
B|-4------------------------------------|
G|----3-6-5-3-5-4-3-----------3-6-5-3-5-|
D|------------------6-5-3-5-6-----------|
A|--------------------------------------|
E|--------------------------------------|

E|-----------------------------------|------------------------|
B|-----------------------------------|------------------------|
G|-5--3-----------3-5-3---------3--5-|-3-4b-4b-4b-3-1-3-1--3b-|
D|------6-5-3-5-6-------6-5--6-------|------------------------|
A|-----------------------------------|------------------------|
E|-----------------------------------|------------------------|

E|------------------------|-------|
B|------------------------|----4b-|
G|----1---3-1-----1---3-1-|-------|
D|-3----3-----3-1---3-----|-3-----|
A|------------------------|-------|
E|------------------------|-------|

E|-----------------------------------|-------|
B|-6--4h6h4---4--------6-------------|----4b-|
G|----------5----5-4h5---5-4-3-1-----|-------|
D|-------------------------------3-1-|-3-----|
A|-----------------------------------|-------|
E|-----------------------------------|-------|

E|------------------------------|-----------------------------|
B|------------------------------|-----------------------------|
G|------------------------------|-----------------------------|
D|----1---3-1-----1---3-1-------|-------------------1---------|
A|-3----3-----2-3---3-----3---2/|-3-2-1-2-1---1-2/3---3-1---1-|
E|------------------------------|-----------4-------------4---|
...

E|------------------------|
B|------------------------|
G|----1---3-1-----1---3-1-|
D|-3----3-----3-1---3-----|
A|------------------------|
E|------------------------|

E|-------|-----------------------------------|-------|
B|----4b-|-6--4h6h4---4--------6-------------|----4b-|
G|-------|----------5----5-4h5---5-4-3-1-----|-------|
D|-3-----|-------------------------------3-1-|-3-----|
A|-------|-----------------------------------|-------|
E|-------|-----------------------------------|-------|

E|---------------------------|---------------------------------|
B|---------------------------|---------------------------------|
G|---------------------------|---------------------------------|
D|---1---3-1-----1---3-1-----|---------------------1-----------|
A|-3---3-----2-3---3-----3-2/|-3--2-1-2--1---1-2/3---3-1---1-3/|
E|---------------------------|-------------4-------------4-----|

E|-------------------------------|
B|-------------------------------|
G|-------------------------------|
D|---------------------3---------|
A|-5--4-3-4--3-1-3-4/5---5-3-1-3-|
E|-------------------------------|

 

 

 
 
 
     
 
 
 

инженеров.netДомашняя страницаНезависимый морской сайтПортал для гитаристовПриколы, юмор, анекдоты

 
обновлен 24.12.2011
в сети с 06.03.2004
 
 
Неофициальный морской сайт Домашняя страница Яндекс цитирования Internet Map Rambler's Top100
Учет посещений на народе

все тексты песен являются собственностью их автора. песени взяты из открытых источников. на сайте размещены с целью ознакомления. при использовании материалов сайта ссылка на сайт обязательна.

по всем вопросам стучитесь в асю или пишите на электропочту

идея, дизайн, редактирование Леха ZaG Загрядский

zagstudio