Аккорды для всех - сайт народных аккордов
 
Аккорды и тексты песен
Guitar Pro табулатуры
Уроки игры на гитаре
Таблица аккордов
Бесплатные программы для музыкантов
Фотографии музыкантов
Видеоклипы
Каталог ссылок
Обратная связь
На главную страницу
 
 
     
 
 

Аккорды, песни, текст, табулатура



Cohen Leonard - Teachers


Capo 2nd fret

Intro: Am

   Am          F
I met a woman long ago
     Am                   F
Her hair the black that black can go
     Am           F
Are you a teacher of the heart?
 Am
Soft she answered no

I met a girl across the sea
Her hair the gold that gold can be
Are you a teacher of the heart?
Yes, but not for thee

I met a man who lost his mind
In some lost place I had to find
Follow me the wise man said
But he walked behind

I walked into a hospital
Where none was sick and none was well
When at night the nurses left
I could not walk at all

Morning came and then came noon
Dinner time a scalpel blade
Lay beside my silver spoon

Some girls wander by mistake
Into the mess that scalpels make
Are you the teachers of my heart?
We teach old hearts to break

One morning I woke up alone
The hospital and the nurses gone
Have I carved enough my Lord?
Child, you are a bone

I ate and ate and ate
No I did not miss a plate, well
How much do these suppers cost?
We'll take it out in hate

I spent my hatred everyplace
On every work on every face
Someone gave me wishes
And I wished for an embrace

Several girls embraced me
Then I was embraced by men
Is my passion perfect?
No, do it once again

I was handsome, I was strong
I knew the words of every song
Did my singing please you?
No, the words you sang were wrong

Who is it whom I address
Who takes down what I confess?
Are you the teachers of my heart?
We teach old hearts to rest

Oh teachers are my lessons done?
I cannot do another one
They laughed and laughed and said, Well child
Are your lessons done?
Are your lessons done?
Are your lessons done?



Verse:

     Am                      F
     |           .           .           .
F#|------0-----0-----0-----0-----1-----1-----1-----0--|
C#|------1-----1-----1-----0-----1-----1-----1-----0--|
 A|----2-----2-----2-----0-----2-----2-----2-----0----|
 E|--------2-----------0-----------3-----------0------|
 B|--0------------------------------------------------|
F#|--------------0-----------1-----------1------------|

     Am                      F
     |           .           .           .
F#|------0-----0-----0-----0-----1-----1-----1-----0--|
C#|------1-----1-----1-----0-----1-----1-----1-----0--|
 A|----2-----2-----2-----0-----2-----2-----2-----0----|
 E|--------2-----------0-----------3-----------0------|
 B|--0------------------------------------------------|
F#|--------------0-----------1-----------1------------|

     Am                      F
     |           .           .           .
F#|------0-----0-----0-----0-----1-----1-----1-----0--|
C#|------1-----1-----1-----0-----1-----1-----1-----0--|
 A|----2-----2-----2-----0-----2-----2-----2-----0----|
 E|--------2-----------0-----------3-----------0------|
 B|--0------------------------------------------------|
F#|--------------0-----------1-----------1------------|

     Am
     |           .           .           .
F#|------0-----0-----0-----0-----0-----0-----0-----0--|
C#|------1-----1-----1-----1-----1-----1-----1-----1--|
 A|----2-----2-----2-----2-----2-----2-----2-----2----|
 E|--------2-----------2-----------2-----------2------|
 B|--0-----------------------0------------------------|
F#|--------------0-----------------------0------------|

     Am
     |           .           .           .
F#|------0-----0-----0-----0-----0-----0-----0-----0--|
C#|------1-----1-----1-----1-----1-----1-----1-----1--|
 A|----2-----2-----2-----2-----2-----2-----2-----2----|
 E|--------2-----------2-----------2-----------2------|
 B|--0-----------------------0------------------------|
F#|--------------0-----------------------0------------|

 

 

 
 
 
     
 
 
 

инженеров.netДомашняя страницаНезависимый морской сайтПортал для гитаристовПриколы, юмор, анекдоты

 
обновлен 24.12.2011
в сети с 06.03.2004
 
 
Неофициальный морской сайт Домашняя страница Яндекс цитирования Internet Map Rambler's Top100
Учет посещений на народе

все тексты песен являются собственностью их автора. песени взяты из открытых источников. на сайте размещены с целью ознакомления. при использовании материалов сайта ссылка на сайт обязательна.

по всем вопросам стучитесь в асю или пишите на электропочту

идея, дизайн, редактирование Леха ZaG Загрядский

zagstudio