Аккорды для всех - сайт народных аккордов
 
Аккорды и тексты песен
Guitar Pro табулатуры
Уроки игры на гитаре
Таблица аккордов
Бесплатные программы для музыкантов
Фотографии музыкантов
Видеоклипы
Каталог ссылок
Обратная связь
На главную страницу
 
 
     
 
 

Аккорды, песни, текст, табулатура



Cohen Leonard - If It Be Your Will 


Capo 4th fret

Intro: G.. ...|G.. ...|

C              Dm
If it be your will
Bb               Am
That I speak no more
C                 Dm
And my voice be still
F            C
As it was before
Am               G
I will speak no more
    Am           G
I shall abide until
F            C
I am spoken for
       G
If it be your will

If it be your will
That a voice be true
From this broken hill
I will sing to you
From this broken hill
All your praises they shall ring
If it be your will
To let me sing

C.. ...|Dm.. ...|Bb.. ...|Am.. ...|
C.. ...|Dm.. ...|F.. ...|C.. ...|

Am                G
From this broken hill
           Am                G
All your praises they shall ring
F              C
If it be your will
    G
To let me sing

If it be your will
If there is a choice
Let the rivers fill
Let the hills rejoice
Let your mercy spill
On all these burning hearts in hell
If it be your will
To make us well

And draw us near
And bind us tight
All your children here
In their rags of light
In our rags of light
All dressed to kill
And end this night
If it be your will
               C
If it be your will



Intro:

     G
     |   .   .   .   .   .   |   .   .   .   .   .
G#|---------------------------------------------------|
D#|------3---3-------3---3-------3---3-------3---3----|
 B|----4---4---4---4---4---4---4---4---4---4---4---4--|
F#|--5-----------5-----------5-----------5------------|
C#|---------------------------------------------------|
G#|---------------------------------------------------|


Verse:

     C                       Dm
     |   .   .   .   .   .   |   .   .   .   .   .
G#|----------------------------------0---1------------|
D#|------5---5-------5---5-------3-----------3--------|
 B|----5---5---5---5---5---5---2---2---2---2---2---2--|
F#|--------------------------0------------------------|
C#|--3-----------3-------------------------------0----|
G#|---------------------------------------------------|

     Bb                      Am
     |   .   .   .   .   .   |   .   .   .   .   .
G#|---------------------------------------------------|
D#|------3---3-------3---3-------1---1-------1---1----|
 B|----3---3---3---3---3---3---2---2---2---2---2---2--|
F#|--------------------------------------2------------|
C#|--1-----------1-----------0------------------------|
G#|---------------------------------------------------|

     C                       Dm
     |   .   .   .   .   .   |   .   .   .   .   .
G#|----------------------------------0---1------------|
D#|------5---5-------5---5-------3-----------3--------|
 B|----5---5---5---5---5---5---2---2---2---2---2---2--|
F#|--------------------------0------------------------|
C#|--3-----------3------------------------------------|
G#|----------------------------------------------0----|

     F                       C
     |   .   .   .   .   .   |   .   .   .   .   .
G#|---------------------------------------------------|
D#|------1---1-------1---1-------5---5-------5---5----|
 B|----2---2---2---2---2---2---5---5---5---5---5---5--|
F#|--------------3------------------------------------|
C#|--------------------------3-----------3------------|
G#|--1------------------------------------------------|

     Am                      G
     |   .   .   .   .   .   |   .   .   .   .   .
G#|---------------------------------------------------|
D#|------1---1-------1---1-------0---0-------0---0----|
 B|----2---2---2---2---2---2---0---0---0---0---0---0--|
F#|--------------2-----------------------0------------|
C#|--0------------------------------------------------|
G#|--------------------------3------------------------|

     Am                      G
     |   .   .   .   .   .   |   .   .   .   .   .
G#|---------------------------------------------------|
D#|------1---1-------1---1-------0---0-------0---0----|
 B|----2---2---2---2---2---2---0---0---0---0---0---0--|
F#|--------------2-----------------------0------------|
C#|--0------------------------------------------------|
G#|--------------------------3------------------------|

     F                       C
     |   .   .   .   .   .   |   .   .   .   .   .
G#|---------------------------------------------------|
D#|------1---1-------1---1-------5---5-------5---5----|
 B|----2---2---2---2---2---2---5---5---5---5---5---5--|
F#|--------------3------------------------------------|
C#|--------------------------3-----------3------------|
G#|--1------------------------------------------------|

     G
     |   .   .   .   .   .   |   .   .   .   .   .
G#|---------------------------------------------------|
D#|------3---3-------3---3-------3---3-------3---3----|
 B|----4---4---4---4---4---4---4---4---4---4---4---4--|
F#|--5-----------5-----------5-----------5------------|
C#|---------------------------------------------------|
G#|---------------------------------------------------|

 

 

 
 
 
     
 
 
 

инженеров.netДомашняя страницаНезависимый морской сайтПортал для гитаристовПриколы, юмор, анекдоты

 
обновлен 24.12.2011
в сети с 06.03.2004
 
 
Неофициальный морской сайт Домашняя страница Яндекс цитирования Internet Map Rambler's Top100
Учет посещений на народе

все тексты песен являются собственностью их автора. песени взяты из открытых источников. на сайте размещены с целью ознакомления. при использовании материалов сайта ссылка на сайт обязательна.

по всем вопросам стучитесь в асю или пишите на электропочту

идея, дизайн, редактирование Леха ZaG Загрядский

zagstudio