Аккорды для всех - сайт народных аккордов
 
Аккорды и тексты песен
Guitar Pro табулатуры
Уроки игры на гитаре
Таблица аккордов
Бесплатные программы для музыкантов
Фотографии музыкантов
Видеоклипы
Каталог ссылок
Обратная связь
На главную страницу
 
 
     
 
 

Аккорды, песни, текст, табулатура



Cohen Leonard - The Partisan 


Tuning: D G C F A D (standard, full step down)

Intro: Am

           C        E/b      Am
When they poured across the border
       C         E/b   Am
I was cautioned to surrender
  C               G
This I could not do
F                  C      E/b   Am
I took my gun and vanished

I have changed my name so often
I've lost my wife and children
But I have many friends
And some of them are with me

An old woman gave us shelter
Kept us hidden in the garret
Then the soldiers came
She died without a whisper

There were three of us this morning
I'm the only one this evening
But I must go on
The frontiers are my prison

Oh, the wind, the wind is blowing
Through the graves the wind is blowing
Freedom soon will come
Then we'll come from the shadows

Les Allemands e'taient chez moi
Ils me dirent, "Signe toi"
Mais je n'ai pas peur
J'ai repris mon arme

J'ai change' cent fois de nom
J'ai perdu femme et enfants
Mais j'ai tant d'amis
J'ai la France entie're

Un vieil homme dans un grenier
Pour la nuit nous a cache'
Les Allemands l'ont pris
Il est mort sans surprise

Oh, the wind, the wind is blowing
Through the graves the wind is blowing
Freedom soon will come
Then we'll come from the shadows



Intro:

    Am
    |           .           .           .
D|---------------------------------------------------|
A|------1-----1-----1-----1-----1-----1-----1-----1--|
F|----2-----2-----2-----2-----2-----2-----2-----2----|
C|--------2-----------2-----------2-----------2------|
G|--0-----------------------0------------------------|
D|--------------0-----------------------0------------|  (x4)

    Am
    |           .           .           .
D|---------------------------------------------------|
A|------1-----1-----1-----1-----1-----1-----1-----0--|
F|----2-----2-----2-----2-----2-----2-----2-----0----|
C|--------2-----------2-----------2-----------0------|
G|--0-----------------------0------------------------|
D|--------------0-----------------------0------------|


Verse:

    C           E/b         Am
    |           .           .           .
D|---------------------------------------------------|
A|------1-----1-----0-----0-----1-----1-----1-----0--|
F|----0-----0-----1-----1-----2-----2-----2-----0----|
C|--------2-----------2-----------2-----------0------|
G|--3-----------2-----------0------------------------|
D|--------------------------------------0------------|

    C           E/b         Am
    |           .           .           .
D|---------------------------------------------------|
A|------1-----1-----0-----0-----1-----1-----1-----0--|
F|----0-----0-----1-----1-----2-----2-----2-----0----|
C|--------2-----------2-----------2-----------0------|
G|--3-----------2-----------0------------------------|
D|--------------------------------------0------------|

    C                       G
    |           .           .           .
D|---------------------------------------------------|
A|------1-----1-----1-----0-----3-----3-----3-----3--|
F|----0-----0-----0-----0-----4-----4-----4-----4----|
C|--------2-----------0-----------5-----------5------|
G|--3-----------3-----------------------5------------|
D|--------------------------3------------------------|

    G                       F
    |           .           .           .
D|---------------------------------------------------|
A|------3-----3-----3-----0-----1-----1-----1-----1--|
F|----4-----4-----4-----0-----2-----2-----2-----2----|
C|--------5-----------0-----------3-----------3------|
G|--------------5-----------------------3------------|
D|--3-----------------------1------------------------|

    F                       C
    |           .           .           .
D|---------------------------------------------------|
A|------1-----1-----1-----0-----1-----1-----1-----0--|
F|----2-----2-----2-----0-----0-----0-----0-----0----|
C|--------3-----------0-----------2-----------0------|
G|--------------3-----------3-----------3------------|
D|--1------------------------------------------------|

    E/b                     Am
    |           .           .           .
D|---------------------------------------------------|
A|------0-----0-----0-----0-----1-----1-----1-----1--|
F|----1-----1-----1-----0-----2-----2-----2-----2----|
C|--------2-----------0-----------2-----------2------|
G|--2-----------2-----------0------------------------|
D|--------------------------------------0------------|

    Am
    |           .           .           .
D|---------------------------------------------------|
A|------1-----1-----1-----1-----1-----1-----1-----1--|
F|----2-----2-----2-----2-----2-----2-----2-----2----|
C|--------2-----------2-----------2-----------2------|
G|--0-----------------------0------------------------|
D|--------------0-----------------------0------------|

    Am
    |           .           .           .
D|---------------------------------------------------|
A|------1-----1-----1-----1-----1-----1-----1-----0--|
F|----2-----2-----2-----2-----2-----2-----2-----0----|
C|--------2-----------2-----------2-----------0------|
G|--0-----------------------0------------------------|
D|--------------0-----------------------0------------|

 

 

 
 
 
     
 
 
 

инженеров.netДомашняя страницаНезависимый морской сайтПортал для гитаристовПриколы, юмор, анекдоты

 
обновлен 24.12.2011
в сети с 06.03.2004
 
 
Неофициальный морской сайт Домашняя страница Яндекс цитирования Internet Map Rambler's Top100
Учет посещений на народе

все тексты песен являются собственностью их автора. песени взяты из открытых источников. на сайте размещены с целью ознакомления. при использовании материалов сайта ссылка на сайт обязательна.

по всем вопросам стучитесь в асю или пишите на электропочту

идея, дизайн, редактирование Леха ZaG Загрядский

zagstudio