-
 
Guitar Pro
 
 
     
 
 

, , ,



- Mendelssohn Wedding March 2 -

  

Guitar 

E||-----------------------|------------------------|------------------------|

B||-----------------------|------------------------|------------------------|

G||-----------------------|------------------------|------------------------|

D||-----------------------|------------------------|------------------------|

A||--------------3--3--3--|--3------------3--3--3--|--3------------3--3--3--|

E||-----------------------|------------------------|------------------------|

 

 

------------------------------|--------------------------|

------------------------------|--------------------------|

------------------------------|--0----0--0--0--0----0----|

--2----2--2--2--2----2--2--2--|--2-------------2----2----|

--3-------------3-------------|--3-------------3---------|

------------------------------|--------------------------|

 

 

|---8--------7---------|--5------3--1---------|----------------------|

|---7--------7------7--|--0---------3----3----|--1--------3-------3--|

|*--5--------8---------|--0---------2----2----|--0--------0----0-----|

|*---------------------|------------0----3----|--2--------3----------|

|---0------------------|----------------------|-----------2----------|

|------------7---------|--0-------------------|--3-------------------|

 

 

--0----------------0--3--|--8--------7---------|--5------3--1---------|

--1-------------1--------|--7--------7------7--|--0---------3----3----|

--0----------0-----------|--5--------8---------|--0---------2----2----|

----------2--------------|---------------------|------------0----3----|

--3----3-----------------|--0------------------|----------------------|

-------------------------|-----------7---------|--0-------------------|

 

 

-----------0-------0--|-------------------------|------------------------------|

--1--------1----3-----|--3--------1-------------|----------------1-------------|

--0--------0----0-----|--0--------0-------------|-------------0----------------|

--2-------------3-----|--3--------2-------------|----------2-------------------|

----------------2-----|--2--------3----3--3--3--|--3----3-------------3--3--3--|

--3--------3----------|-------------------------|------------------------------|

 

 

----------------0-------------|----------------0----------0--|

-------------1----------------|-------------1----------1-----|

----------0-------------------|----------0----------0--------|

-------2----------------------|-------2----------------------|

--3------------------3--3--3--|--3---------------------------|

------------------------------|------------------------------|

 

 

--3----------0--3-------0--3---||---------------------|--0-------------------|

----------1----------1---------||--1--------1------1--|--1----3----0---------|

-------0----------------------*||--0--------0---------|------------0----0----|

------------------------------*||--2--------2---------|--0---------3---------|

--3----------------------------||--3--------3---------|----------------------|

-------------------------------||---------------------|--3---------3---------|

 

 

-------------------0--|--0-------------------|-------------------3--|

---------1--1---------|--1----3----0---------|---------1--1---------|

--0---------0---------|------------0----0----|--0---------0---------|

--2---------2---------|--0---------3---------|--2---------2---------|

--3-------------------|----------------------|--3-------------------|

----------------------|--3---------3---------|----------------------|

 

 

--3--------1------0--|----------0-------------|-------3----5----7----|

--1--------1---------|--3----2-----3-------1--|--0-------------------|

--2--------2---------|--2----------2----2-----|--0----0----2----4----|

--3--------3---------|------------------------|--0-------------------|

---------------------|------------------------|----------------------|

---------------------|--1---------------------|--3-------------------|

 

 

--8--------7---------|--5------3--1---------|----------------------|

--7--------7------7--|--0---------3----3----|--1--------3-------3--|

--5--------8---------|--0---------2----2----|--0--------0----0-----|

---------------------|------------0----3----|--2--------3----------|

--0------------------|----------------------|-----------2----------|

-----------7---------|--0-------------------|--3-------------------|

 

 

--0----------------0--3--|--8--------7---------|--5------3--1---------|

--1-------------1--------|--7--------7------7--|--0---------3----3----|

--0----------0-----------|--5--------8---------|--0---------2----2----|

----------2--------------|---------------------|------------0----3----|

--3----3-----------------|--0------------------|----------------------|

-------------------------|-----------7---------|--0-------------------|

 

 

-----------0-------0--|--------------------|------------------||

--1--------1----3-----|--3--------1--------|------------------||

--0--------0----0-----|--0--------0--------|------------------||

--2-------------3-----|--3--------2--------|------------------||

----------------2-----|--2--------3--------|------------------||

--3--------3----------|--------------------|------------------||

 

 

 

 

...

 
 
 
     
 
 
| | | | | | | | | |
 

.net     , ,

 
24.12.2011
06.03.2004
 
 
    Internet Map Rambler's Top100

. . . .

, , ZaG

zagstudio