Аккорды для всех - сайт народных аккордов
 
Аккорды и тексты песен
Guitar Pro табулатуры
Уроки игры на гитаре
Таблица аккордов
Бесплатные программы для музыкантов
Фотографии музыкантов
Видеоклипы
Каталог ссылок
Обратная связь
На главную страницу
     
 
 

Аккорды, песни, текст, табулатура



ЧиЖ & Со - Полонез

 

Вступление:

 

E|-0--------0--2--------0-|    / E = x2 (раза)100

H|-------0-----------0----|    / Н7 = xx1202

G|----1-----------2-------|    /

D|-2-----------1----------|    /

A|------------------------|    /

E|------------------------|    /

 

E|-4-----0--4--0-----2--4-|    / E = 0xx454

H|----0-----------0-------|    /

G|------------------------|    /

D|------------------------|    /

A|------------------------|    /

E|-0----------------------|    /

 

E|-5-----0--5--5-----1--4-|    / A = x0x655

H|----2-----------2-------|    / C#5+ = x4x665

G|------------------------|    /

D|------------------------|    /

A|-0-----------4----------|    /

E|------------------------|    /

 

E|-2--------2-----------0-|    / D6 = xx0202

H|----0--------0-----0----|    /

G|-------2--------2-------|    /

D|-0----------------------|    /

A|------------------------|    /

E|------------------------|    /

 

E|-0--------0--------4--2-|    / A = x02 (раза)20

H|-------2--------1-------|    / G#7 = xx6574

G|----2--------1----------|    /

D|------------------------|    /

A|-0----------------------|    /

E|------------------------|    /

 

E|-0--------0-----------4-|    / C#m = x4665x

H|-------2-----2-----7----|    /

G|----3-----------3-------|    /

D|------------------------|    /

A|-4----------------------|    /

E|------------------------|    /

 

E|-7--5/5----------------|    / F#m = 444647

H|----------7/7--5/5----|    / что я обозначил / - на

G|-------6-----6-----6----|    / нотной записи это лиги.

D|-4----------------------|    /

A|------------------------|    /

E|------------------------|    /

 

E|-------------1-----2----|    / Н7 = 2 (раза)x44x

H|-4-----5--------0-----0-|    /

G|----4-----4-------------|    /

D|-------------0----------|    /

A|-2-----4-----------1----|    /

E|------------------------|    /

 

  [E      Н7]   E       [A         C#]   F#m

Давай разроем снег и найдем хоть одну мечту.

 A              Н7                E   Н7

Ты сказала, ты знаешь, она живет там.

[E    Н7]   E     [A         C#]       F#m

Принесем домой и оставим с собой до весны,    / C#  = x4x664

A             Н7            E                 / C#5+= x4x665

А потом с балкона отпустим ее,                / D6  = xx0202

       [C#5+ C#]

Пусть летит!

 

Припев:

        D6                  Н7

    Колокольчик в твоих волосах

                  E

    Звучит соль-диезом.

         D6                  Н7

    Колокольчик в твоих волосах...

 

Давай разожжем костер, и согреем хоть одну звезду,

Ты сказала мне, что нужно делать именно так.

Мы будем сидеть у огня и рассказывать друг другу сны,

А потом нам споет свою песню первая птица и улетит...

 

Припев

 

Давай растопим лед, и спасем хоть одну любовь,

Ты сказала мне, что видишь в этом новый восход,

Мы напишем стихи о том как нам хорошо вдвоем,

А потом ты научишь меня танцевать полонез, и мы взлетим...

 

Припев

 

 

 
 
 
     
 
 
 

инженеров.netДомашняя страницаНезависимый морской сайтПортал для гитаристовПриколы, юмор, анекдоты

 
обновлен 24.12.2011
в сети с 06.03.2004
 
 
Неофициальный морской сайт Домашняя страница Яндекс цитирования Internet Map Rambler's Top100
Учет посещений на народе

все тексты песен являются собственностью их автора. песени взяты из открытых источников. на сайте размещены с целью ознакомления. при использовании материалов сайта ссылка на сайт обязательна.

по всем вопросам стучитесь в асю или пишите на электропочту

идея, дизайн, редактирование Леха ZaG Загрядский

zagstudio