-
 
Guitar Pro
 
 
     
 
 

, , ,



& Co - 1

 

:

 

 

1 |-0--------0--2--------0-| / E = xx2100

2 |-------0-----------0----| / H7 = xx1202

3 |----1-----------2-------| /

4 |-2-----------1----------| /

5 |------------------------| /

6 |------------------------| /

 

 

1 |-4-----0--4--0-----2--4-| / E = 0xx454

2 |----0-----------0-------| /

3 |------------------------| /

4 |------------------------| /

5 |------------------------| /

6 |-0----------------------| /

 

1 |-5-----0--5--5-----1--4-| / A = x0x655

2 |----2-----------2-------| / C#5+ = x4x665

3 |------------------------| /

4 |------------------------| /

5 |-0-----------4----------| /

6 |------------------------| /

 

1 |-2--------2-----------0-| / D6 = xx0202

2 |----0--------0-----0----| /

3 |-------2--------2-------| /

4 |-0----------------------| /

5 |------------------------| /

6 |------------------------| /

 

1 |-0--------0--------4--2-| / A = x0x220

2 |-------2--------1-------| / G#7 = xx6574

3 |----2--------1----------| /

4 |------------------------| /

5 |-0----------------------| /

6 |------------------------| /

 

1 |-0--------0-----------4-| / C#m = x4665x

2 |-------2-----2-----7----| /

3 |----3-----------3-------| /

4 |------------------------| /

5 |-4----------------------| /

6 |------------------------| /

 

1 |-7--5\/5----------------| / F#m = 444647

2 |----------7\/7--5\/5----| / \/ -

3 |-------6-----6-----6----| / .

4 |-4----------------------| /

5 |------------------------| /

6 |------------------------| /

 

1 |-------------1-----2----| / H7 = x2x44x

2 |-4-----5--------0-----0-| /

3 |----4-----4-------------| /

4 |-------------0----------| /

5 |-2-----4-----------1----| /

6 |------------------------| /

 

[E H7] E [A C#] F#m

.

A H7 E H7

, , .

[E H7] E [A C#] F#m

, / C# = x4x664

A H7 E / C#5+ = x4x665

, / D6 = xx0202

[C#5+ C#]

!

D6 H7

E

-.

D6 H7

...

 

 

() 2

 

:

 

 

 

1 |-0-----0-----2-----0---|

2 |-----0-----------0-----|

3 |---1-----------2-------|

4 |-2-----------1---------|

5 |-----------------------|

6 |-----------------------|

 

1 |-4------4-----2---4----|

2 |------5---5------------|

3 |----4-------4----------|

4 |-----------------------|

5 |-----------------------|

6 |-0---------------------|

 

1 |-5-----5--5------4-----|

2 |-----5---------6-------|

3 |---6---------6---------|

4 |-----------------------|

5 |-0--------4------------|

6 |-----------------------|

 

1 |-2-----2-------0-------|

2 |-----0---0---0---------|

3 |---2-------2-----------|

4 |-0---------------------|

5 |-----------------------|

6 |-----------------------|

 

1 |-0-----0-------4-------|

2 |-----3------------7----|

3 |---2---------5---------|

4 |-----------6-----------|

5 |-0---------------------|

6 |-----------------------|

 

1 |-------------------4---|

2 |-5 ----5------7--------|

3 |-----6---6-------------|

4 |---6-------6-----------|

5 |-4---------------------|

6 |-----------------------|

 

1 |-7--5------------------|

2 |---------7---5---------|

3 |------6----6---6-------|

4 |-4---------------------|

5 |-----------------------|

6 |-----------------------|

 

1 |-----------1---2-------|

2 |-4----5------0---0-----|

3 |---4----4--------------|

4 |-----------0---1-------|

5 |-2----4----------------|

6 |-----------------------|

 

 

[E H7] E [A C#] F#m

.

A H7 E H7

, , .

[E H7] E [A C#] F#m

, / C# = x4x664

A H7 E / C#5+ = x4x665

, / D6 = xx0202

[C#5+ C#]

!

D6 H7

E

-.

D6 H7

...

 

 

 

 

- 3

 

 

1 |-0--------0--2--------0-| / E = xx2100

2 |-------0-----------0----| / H7 = xx1202

3 |----1-----------2-------| /

4 |-2-----------1----------| /

5 |------------------------| /

6 |------------------------| /

 

1 |-4--------4-----------4-| / E = 0xx454

2 |----5--------5-----7----| /

3 |-------4--------4-------| /

4 |------------------------| /

5 |------------------------| /

6 |-0----------------------| /

 

1 |-5--------5--5----------| / A = x0x655

2 |-------5--------6-----6-| / C#5+ = x4x665

3 |----6--------------6----| /

4 |------------------------| /

5 |-0-----------4----------| /

6 |------------------------| /

 

1 |-2--------2--------2----| / D6 = xx0202

2 |----0--------0--------0-| /

3 |-------2--------2-------| /

4 |-0----------------------| /

5 |------------------------| /

6 |------------------------| /

 

1 |-0--------0--------4--2-| / A = x0x220

2 |-------2--------1-------| / G#7 = xx6574

3 |----2--------1----------| /

4 |------------------------| /

5 |-0----------------------| /

6 |------------------------| /

 

1 |----------------------4-| / C#m = x4665x

2 |-5--------5--------7----| /

3 |----4--------4----------| / =x4645x

4 |-------6---------6------| /

5 |-4----------------------| /

6 |------------------------| /

 

1 |-7--5\/5----------------| / F#m = 444647

2 |----------7\/7--5\/5----| / \/ -

3 |-------6-----6-----6----| / .

4 |-4--------------------4-| /

5 |------------------------| /

6 |------------------------| /

 

1 |-------------1-----2----| / H7 = x2x44x

2 |-4-----5--------0-----0-| /

3 |----4-----4-------------| /

4 |-------------0----------| /

5 |-2-----4-----------1----| /

6 |------------------------| /

 

 

Solo: | |- bend & release

1|---------------------------------------------------------------|

2|9-10-12=-12=-5=-5-7-9-10-9bv-7-7h8p7-5-4-5-7-9-9SL12-10-7-5-4-4|

3|---------------------------------------------------------------|

 

= - vibr.

 

[E H7] E [A C#] F#m

.

A H7 E H7

, , .

[E H7] E [A C#] F#m

, / C# = x4x664

A H7 E / C#5+ = x4x665

, / D6 = xx0202

[C#5+ C#]

!

 

:

D6 H7

E

-.

D6 H7

...

 

, ,

, .

- ,

...

 

 

, ,

, ,

, ,

"", ...

 

 

 

 

 

 

...

 
 
 
     
 
 
| | | | | | | | | |
 

.net     , ,

 
24.12.2011
06.03.2004
 
 
    Internet Map Rambler's Top100

. . . .

, , ZaG

zagstudio