-
 
Guitar Pro
 
 
     
 
 

, , ,



& -

 

F(V) F(V)

E|----5--5--x--5-|---5--5--x--5-----4--4--x--4-----4--4--x--4-|

B|----6--6--x--6-|---6--6--x--6--3--3--3--x--3--3--3--3--x--3-|

G|----5--5--x--5-|---5--5--x--5-----4--4--x--4-----4--4--x--4-|

D|---------------|---------------3--3--3--x--3--3--3--3--x--3-|

A|---------------|--------------------------------------------|

E|-5-------------|-5------------------------------------------|

- - - ,

 

-----7--7--x--7--|

: -6---6--6--x--6--|

-----7--7--x--7--|

-6---6--6--x--6--|

Dm Dm-7 Dm7 Dm-7

-

Dm Dm7 Gm7

C Gdim Dm

E7-3 E7 Gm A7

Dm Dm-7 Dm7 Dm-7

-

Dm Dm7 Gm

C7 F C7 F

E7-3 E7 A7-3 A7

Dm Bm Bm6

,

F G#dim

-

Gm A7 Dm-5 Dm6

- :

E7-3 E7 A7-3 A7

" ?"

 

Dm Dm-5

[R]

Dm6 Dm7

, " "

Am-5 D7 Gm

,

Gm7 C7

Fmaj Bmaj

E7 Gm6 A7

.

 

-

,

"","" ""

,

-

- :

" ?"

 

[R]

Em Em7 Em7-

-

Em Em7 Am7

,

D F#dim H7 Em Em6

F#7-3 F#7 Am6 H7

Em Em7- Em Em7-

Em Em7 Am7

, ,

D7 G D7 G

-

F#7 H7-7 H7

 

Em Cm Cm6

,

G F#dim

-

Am6 H7 Em C#m-5

F H7 Em

" ?"

 

 

...

 
 
 
     
 
 
| | | | | | | | | |
 

.net     , ,

 
24.12.2011
06.03.2004
 
 
    Internet Map Rambler's Top100

. . . .

, , ZaG

zagstudio