-
 
Guitar Pro
 
 
     
 
 

, , ,



& Co - !

 

 

 

e:---------------------------------------------------------------------------|

B:---------------------------------------------------------------------------|

G:5---5---5---5---4---5/7---7---5---4-------7---7---7---7---5---7/8---8---7--|

D:--------------------------------------5------------------------------------|

A:---------------------------------------------------------------------------|

E:---------------------------------------------------------------------------|

 

e:---------------------------------------------------------------------------|

B:---------------------------------------------------------------------------|

G:-5-------8---8---8---8---7---8/10---10---8---7-------10---10---10---10---8-|

D:-----6-------------------------------------------8-------------------------|

A:---------------------------------------------------------------------------|

E:---------------------------------------------------------------------------|

 

e:----------------------------------------------------------|

B:----------------------------------------------------------|

G:--10---12---10---8---10---12~---5---l(5)---l(7)---l(7)----|

D:---------------------------------------------------------5|

A:----------------------------------------------------------|

E:----------------------------------------------------------|

 

 

Hm

H Em

C p 20

F#

p

Hm

 

H y

H Em

py y y y

F#

p

Hm

p

F#

p: p

Hm

H

A

D

Em F# Hm

!

 

p

y p p

H p

p

y y y

p

 

p: p

H

py

!

 

Solo.

 

py p p

py

p

H py p

py

pp py

p y

"py p"

 

p: H p

H

py

! !

! !

! !

! !

 

 

 

 

...

 
 
 
     
 
 
| | | | | | | | | |
 

.net     , ,

 
24.12.2011
06.03.2004
 
 
    Internet Map Rambler's Top100

. . . .

, , ZaG

zagstudio