-
 
Guitar Pro
 
 
     
 
 

, , ,



-

 

:

( 1 )( 2

E|--4-----2-----0---------|------------------------------------|

H|5---5^3---3^2---2--0-2-0|------------------------------------|

G|------------------------|-----------------------4-2----------|

D|------------------------|------2------------2-0-----4-------2|

A|------------------------|0-0^4--------2-00^4----------0-0^4--|

E|------------------------|--------0-0-4-----------------------|

)

E|-----------|

H|-----------|

G|-----------|

D|-----------|

A|-------2---|

E|-0-0-4--2--|

(1) (2)

E|------------------|------------|-------------------|---------|

H|--2--2------------|------------|----2--2-----2--2--|---------|

G|--2--2---2-----1--|------------|----2--2-----2--2--|---------|

D|----------0-----2-|------------|-------------------|---------|

A|------------------|------------|-------------------|---------|

E|------------------|------------|-------------------|---------|

 

A E

,

A D

,

A E

F# D E

,

A E

,

A D

A E

,

F# D E

,

 

A E A D

,

A E F# D E

A E A D

A E F# D E

 

, ,

,

, ,

, , -

 

, ,

- ,

- ,

 

,

2 .

 

A E A D

A E F# D/E

 

 

...

 
 
 
     
 
 
| | | | | | | | | |
 

.net     , ,

 
24.12.2011
06.03.2004
 
 
    Internet Map Rambler's Top100

. . . .

, , ZaG

zagstudio