-
 
Guitar Pro
 
 
     
 
 

, , ,



- -

 

( 1)

1

C G

|----0-0---------0-0---------3-3---------3-3-|

|----1-1---------1-1---------0-0---------0-0-|

|----0-0----(0)--0-0----(0)--0-0----(0)--0-0-|

|----2-2----(2)--2-2----(0)--0-0----(0)--0-0-|

|--3------3----------------------------------|

|---------------------3-----------3----------|

Am F

|---------0-0---------0-0------------0-0--------0-0-|

|---------1-1---------1-1------------1-1--------1-1-|

|----(2)--2-2----(2)--2-2-------(2)--2-2---(2)--2-2-|

|----(2)--2-2----(2)--2-2-----3----------3----------|

|--0-----------0------------------------------------|

|---------------------------------------------------|

 

1 2 :

 

( 2)

C G

|----0-0---------0-0---------3-3---------3-3-|

|----1-1---------1-1---------0-0---------0-0-|

|----0-0----(0)--0-0----(0)--0-0----(0)--0-0-|

|----2-2----(2)--2-2----(0)--0-0----(0)--0-0-|

|--3------3----------------------------------|

|---------------------3-----------3----------|

Am F G

|---------0-0---------0-0------------0-0--------0-0-|

|---------1-1---------1-1------------1-1--------3-3-|

|----(2)--2-2----(2)--2-2-------(2)--2-2---(4)--4-4-|

|----(2)--2-2----(2)--2-2-----3----------5----------|

|--0-----------0------------------------------------|

|---------------------------------------------------|

 

 

 

C G Am F G C

|-----------------------------------------------|

|--5-6-8-6-5=----8------------------------------|

|-------------7=----7-5--5h7p5----5-7b8r7-5-4-5=|

|-------------------------------7---------------|

|-----------------------------------------------|

|-----------------------------------------------|

 

 

1 1

2

 

C G Am F

|------------------------------------0-------------------------|

|--------------------------------------1-------------5--3b4----|

|-5=---------------7=--------2=----------2-------5-4--------5=-|

|------------------------------------------3--5h7--------------|

|--------------------------------------------------------------|

|--------------------------------------------------------------|

 

1 2

2

 

C G Am F G

|--------------------------------------------------0-----------|

|--------------------------1=---1-3b4r3-1-0--------3-----------|

|-5=------------7=-------2=---2-----------------4-----4---5=---|

|---------------------------------------------5----------------|

|--------------------------------------------------------------|

|--------------------------------------------------------------|

 

1 1

2

 

C G Am F

|------------------------------------------------|

|----------------------------------3b4r3-1-0-1---|

|-5=-------------7=------------2=----------------|

|------------------------------------------------|

|------------------------------------------------|

|------------------------------------------------|

 

1 2

2

 

C G Am F

|-------------------------------------------------|

|-------------------------------------3b4r3-1-0-1-|

|-5=------------57--7=------------2=-------------|

|------------57----------------------------------|

|-------------------------------------------------|

|-------------------------------------------------|

 

 

:

 

1 2

2

C G Am F G

|--0--0--------3--3----------0--0=--------0=--------0=--|

|--1----1------0----0--------1--0=--------1=--------3=--|

|--0------0----0------0------2--2=------2----2----4----4|

|----------------------------2--2=----3---------5-------|

|--3----------------------0-----------------------------|

|--------------3----------------------------------------|

- - -

 

 

1 2

2

C G Am F G

|--0--0--------3--3----------0--0=--------0=--------0=--|

|--1----1------0----0--------1--0=--------1=--------3=--|

|--0------0----0------0------2--2=------2----2----4----4|

|----------------------------2--2=----3---------5-------|

|--3----------------------0-----------------------------|

|--------------3----------------------------------------|

- - -

 

 

2

 

1 1

2

 

 

C G Am F

|--0--0--------3--3------------------0----------0=--|

|--1----1------0----0------------0h1---1--------1=--|

|--0------0----0------0--------2---------2------2---|

|----------------------------2-------------3=---3---|

|--3----------------------0-------------------------|

|--------------3------------------------------------|

 

 

1 2

2

 

 

C G Am F G

|--0--0--------3--3------------------0----------0=-------0=-|

|--1----1------0----0------------0h1---1--------1=-------3=-|

|--0------0----0------0--------2---------2----2----2---4---4|

|----------------------------2--------------3--------5------|

|--3----------------------0---------------------------------|

|--------------3--------------------------------------------|

 

 

1 1

2

 

 

C G Am F

|--0--0--------3--3------------------0---------------------|

|--1----1------0----0------------0h1---1---------------0-1-|

|--0------0----0------0--------2---------2---------2-0-----|

|----------------------------2-------------3=--2h3---------|

|--3----------------------0--------------------------------|

|--------------3-------------------------------------------|

" "

 

 

1 2

2

 

 

C G Am F G

|--0--0--------3--3------------------0----------0=-------0=-|

|--1----1------0----0------------0h1---1--------1=-------3=-|

|--0------0----0------0--------2---------2----2----2---4---4|

|----------------------------2--------------3--------5------|

|--3----------------------0---------------------------------|

|--------------3--------------------------------------------|

 

 

:

1 2

2

C G Am F G

|--0--0--------3--3----------0--0=--------0=--------0=--|

|--1----1------0----0--------1--0=--------1=--------3=--|

|--0------0----0------0------2--2=------2----2----4----4|

|----------------------------2--2=----3---------5-------|

|--3----------------------0-----------------------------|

|--------------3----------------------------------------|

- - -

 

 

1 2

2

C G Am F G

|--0--0--------3--3----------0--0=--------0=--------0=--|

|--1----1------0----0--------1--0=--------1=--------3=--|

|--0------0----0------0------2--2=------2----2----4----4|

|----------------------------2--2=----3---------5-------|

|--3----------------------0-----------------------------|

|--------------3----------------------------------------|

- - -

 

 

3:

1 1

2

C G Am F

|-----------------------------------------------------(0)-|

|--10b12=---------------------------------------------(1)-|

|-----------------------------------------------------(0)-|

|---------------------------------------------------------|

|---------------------------------------------------------|

|---------------------------------------------------------|

 

 

1 2

2

C G Am F G

|--------------------------------------------------0--------0--|

|--10b12=------------------------------------------1--------3--|

|----------------------------------5-4-7-4-5-----2---2----4---4|

|------------------------------5h7-------------3--------5------|

|--------------------------------------------------------------|

|--------------------------------------------------------------|

 

 

1 1

2

C G Am F

|--------------------------------------------0=---------|

|----------------------------------------0h1------12b13-|

|-------------------------------------------------------|

|-------------------------------------------------------|

|-------------------------------------------------------|

|-------------------------------------------------------|

 

 

1 2

2

 

 

C G Am F G

|--0--0--------3--3----------------0-0-0=----------------|

|--1----1------0----0--------------1-1-0=----------------|

|--0------0----0------0------------2-2-2=----------------|

|----------------------------------2-2-2=----------------|

|--3-----------------------------------------------------|

|--------------3-----------------------------------------|

 

 

 

C G Am (Asus 2) F G

- - -

- - -

- - -

- - -

 

 

1 1

2

 

 

C G Am F

|-----------------------------------------------|

|--5-6-8-6-5=-----------------------------------|

|-------------7=---5---5-7b9---7b9r7-4-5-4------|

|--------------------7--------------------------|

|-----------------------------------------------|

|-----------------------------------------------|

 

 

1 2

2

 

 

C G Am F G C

|-----------------------------------------------|

|-----------------------5-6-8-6-5---------------|

|-7b9r7p5-7b9r7p5--7b9-------------7-5----------|

|-----------------------------------------------|

|-----------------------------------------------|

|-----------------------------------------------|

 

 

...

 
 
 
     
 
 
| | | | | | | | | |
 

.net     , ,

 
24.12.2011
06.03.2004
 
 
    Internet Map Rambler's Top100

. . . .

, , ZaG

zagstudio