-
 
Guitar Pro
 
 
     
 
 

, , ,



- -

 

Intro ( 1)

 

E|------------------|----------------|-------------------------|

B|------------------|----3--1--1--0--|-------------------------|

G|--2-4-2-4-5---2-4-|-5--------------|--2----4--2-4-5------2-4-|

D|------------------|----------------|-------------------------|

A|------------------|----------------|-------------------------|

E|------------------|----------------|-------------------------|

 

E|-----------------|---------------------|---------------------|

B|----3--1-4/5---4/|-5--3----------------|-------------------4/|

G|-5---------------|-------5h-4----4--2--|--2--5--2--2--1------|

D|-----------------|---------------------|---------------------|

A|-----------------|---------------------|---------------------|

E|-----------------|---------------------|---------------------|

 

E|-----------------|-----------------------|-------------------|

B|-5--3------------|-----------------------|-------------------|

G|-------5h-4--4-2-|--2----5--2--2----1----|--2----------------|

D|-----------------|-----------------------|-------------------|

A|-----------------|-----------------------|-------------------|

E|-----------------|-----------------------|-------------------|

 

Solo ( 1)

 

E|---------------------------|---------------------------------|

B|------5-----------5--------|----5--6--3--1--1-----0----------|

G|---------------------------|---------------------------------|

D|---------------------------|---------------------------------|

A|---------------------------|---------------------------------|

E|---------------------------|---------------------------------|

 

E|-------------|-----------------------|-----------------------|

B|-5-----5-----|-5-6--3--1--1---0------|-----------------------|

G|-------------|-----------------------|------2----------2-----|

D|-------------|---------------------2/|-3-------3--2-------2--|

A|-------------|-----------------------|-----------------------|

E|-------------|-----------------------|-----------------------|

 

E|---------------------|----------------------|--5-------4-----|

B|---------------------|----------------------|--4-------3-----|

G|------2--------------|------2---------2-----|--5-------4-----|

D|-1-------1--0------2/|-3-------3--2------2--|--4-------3-----|

A|---------------------|----------------------|----------------|

E|---------------------|----------------------|----------------|

 

E|--0------------3-4/5--------|--------------------------------|

B|--1--------3-5--------------|--------------------------------|

G|--2----3/5------------------|--------------------------------|

D|--2-------------------------|--------------------------------|

A|----------------------------|--------------------------------|

E|----------------------------|--------------------------------|

 

( 2)

 

Am C Dm E

E|-----------0-----------0-------|--------1-----------0--------|

B|-----------1-----------1-------|--------3-----------0--------|

G|--------2-----2-----0-----0----|-----2-----2-----1-----1-----|

D|-------------------------------|--0--------------------------|

A|----0------------3-------------|--------------2--------------|

E|-------------------------------|-----------------------------|

 

Am C Dm E

E|--------0-----------0-----|--------1-----------0-------------|

B|--------1-----------1-----|--------3-----------0-------------|

G|-----2-----2-----0-----0--|-----2-----2-----1-----1----------|

D|--------------------------|--0-------------------------------|

A|--0-----------3-----------|--------------2-------------------|

E|--------------------------|----------------------------------|

 

Dm Am F E

E|--------1-----------0-----|--------1-----------0-------------|

B|--------3-----------1-----|--------1-----------0-------------|

G|-----2-----2-----2-----2--|-----2-----2-----1-----1----------|

D|--0-----------------------|----------------------------------|

A|--------------0-----------|--3-----------2-------------------|

E|--------------------------|----------------------------------|

 

Dm Am F E

E|--------1-----------0-----|--------1-----------0-------------|

B|--------3-----------1-----|--------1-----------0-------------|

G|-----2-----2-----2-----2--|-----2-----2-----1-----1----------|

D|--0-----------------------|----------------------------------|

A|--------------0-----------|--3-----------2-------------------|

E|--------------------------|----------------------------------|

 

Am Am

E|--------0-----------0-----|--------0-----------0-------------|

B|--------1-----------1-----|--------1-----------1-------------|

G|-----2-----2-----2-----2--|-----2-----2-----2-----2----------|

D|--------------------------|----------------------------------|

A|--0-----------0-----------|--0-----------0-------------------|

E|--------------------------|----------------------------------|

 

Am C Dm E

E|--------0-----------0-----|--------1-----------0-------------|

B|--------1-----------1-----|--------3-----------0-------------|

G|-----2-----2-----0-----0--|-----2-----2-----1-----1----------|

D|--------------------------|--0-------------------------------|

A|--0-----------3-----------|--------------2-------------------|

E|--------------------------|----------------------------------|

 

Am C Dm E

E|--------0-----------0-----|--------1-----------0-------------|

B|--------1-----------1-----|--------3-----------0-------------|

G|-----2-----2-----0-----0--|-----2-----2-----1-----1----------|

D|--------------------------|--0-------------------------------|

A|--0-----------3-----------|--------------2-------------------|

E|--------------------------|----------------------------------|

 

Dm Am F E

E|--------1-----------0-----|--------1-----------0-------------|

B|--------3-----------1-----|--------1-----------0-------------|

G|-----2-----2-----2-----2--|-----2-----2-----1-----1----------|

D|--0-----------------------|----------------------------------|

A|--------------0-----------|--3-----------2-------------------|

E|--------------------------|----------------------------------|

 

Dm Am F E

E|--------1-----------0-----|--------1-----------0-------------|

B|--------3-----------1-----|--------1-----------0-------------|

G|-----2-----2-----2-----2--|-----2-----2-----1-----1----------|

D|--0-----------------------|----------------------------------|

A|--------------0-----------|--3-----------2-------------------|

E|--------------------------|----------------------------------|

 

Am Am

E|--------0-----------0-----|--------0-----------0-------------|

B|--------1-----------1-----|--------1-----------1-------------|

G|-----2-----2-----2-----2--|-----2-----2-----2-----2----------|

D|--------------------------|----------------------------------|

A|--0-----------0-----------|--0-----------0-------------------|

E|--------------------------|----------------------------------|

 

Am C Dm E

, ,

Am C Dm E

- ,

Dm Am F E

,

Dm Am F E Am Am

- .

 

,

,

,

- .

 

Intro

 

- ,

,

,

- .

 

 

...

 
 
 
     
 
 
| | | | | | | | | |
 

.net     , ,

 
24.12.2011
06.03.2004
 
 
    Internet Map Rambler's Top100

. . . .

, , ZaG

zagstudio