-
 
Guitar Pro
 
 
     
 
 

, , ,



Celine Dion - My Heart Will Go On

 

intro:

 

distortion/rever

|-12-14-16~~-16p14p12-16-14--12------------|

|-------------------------------16-14~-12~-|

|------------------------------------------|

|------------------------------------------|

 

arpegio Cm# H A H(*)

|-------4-------------2------------5---7---|

|-------5-------------4------------5---7---|

|-------6-------------4------------6---8---|

|-------6-------------4------------7---9---|

|-------4-------------2------------7---9---|

|----------------------------------5---7---|

 

|-12-14-16~~-16p14p12-16-14-16-19-21~~-19-14-|

|--------------------------------------------|

|--------------------------------------------|

|--------------------------------------------|

Verse(Voice melody):

 

|----------------------------|-----------------|

1|--5-55-5-4-5--5-4-5--5-9~-7-|-5-55-5-4-5-5\-0-|

|----------------------------|-----------------|

|----------------------------|-----------------|

|----------------------------|-----------------|

|----------------------------|-----------------|

 

Cm# H A H

Every night in my dreams, I see you, I feel you,

That is how I know you go on.

Far across the distance, and spaces between us

You have come to show you go on.

 

Chorus

Near,far...

|----------------------|----------------------|

1|----------12--10-9----|-9-10-9---------------|

|-9--11-------------11-|--------11-9-8-9--9---|

|--------9-------------|--------------------9~|

|----------------------|----------------------|

|----------------------|----------------------|

Once more...

|----------------------|-----------------------------------|

|----------12--10-9----|-9-10-9----------------------------|

|-9--11-------------11-|--------11-9-8-9~-9-8-9~-9/13-11-9-|

|--------9-------------|-----------------------------------|

|----------------------|-----------------------------------|

|----------------------|-----------------------------------|

 

E H A H

Near, far, wherever you are,

Cm# H A H

I believe that the heart does go on.

E H A H

Once more, you open the door

Cm# H

And you're here in my heart,

A Cm# H E

And my heart will go on and on.

 

Love can touch us one time and last for a lifetime,

And never let go till we're gone.

Love was when I loved you, one true time I hold to

In my life we'll always go on.

 

Near, far, wherever you are,

I believe that the heart does go on.

Once more, you open the door

And you're here in my heart,

And my heart will go on and on.

 

You're here, there's nothing I fear

And I know that my heart will go on.

We'll stay forever this way,

You are safe in my heart,

And my heart will go on and on.

 

 

...

 
 
 
     
 
 
| | | | | | | | | |
 

.net     , ,

 
24.12.2011
06.03.2004
 
 
    Internet Map Rambler's Top100

. . . .

, , ZaG

zagstudio