Аккорды для всех - сайт народных аккордов
 
Аккорды и тексты песен
Guitar Pro табулатуры
Уроки игры на гитаре
Таблица аккордов
Бесплатные программы для музыкантов
Фотографии музыкантов
Видеоклипы
Каталог ссылок
Обратная связь
На главную страницу
 
 
     
 
 

Аккорды, песни, текст, табулатура



Bryan Adams - Do I Have To Say The Words

 

Intro (Fig.1):

 

D G(9) D Gmaj7

|-2-----3-----5---|-2-----3-----2----|

|---3-----3-------|---3-----3--------|

|-----2-----2-----|-----2-----2------|(repeat twice)

|-----------------|------------------|

|-----------------|------------------|

|-----------------|------------------|

 

 

 

D G(9) D G(9) D

Rescue me from the mire, whisper words of desire, rescue me,

Bm7 A D/A A7

darlin' rescue me. with your

 

D G(9) D G(9)

arms open wide, want you here by my side , come to

|-------0--------------------|-------0---------------------|

|---3----------0-------------|---3-----------0-------------|

|-2---2--------0-------------|-2---2---------0-------------|

|----------------------------|-----------------------------|

|----------------------------|-----------------------------|

|----------------------------|-----------------------------|

 

D Bm7 A

me darlin' rescue me when there's

|-------0----------------------|--------------------------5------|

|---3---------3----------------|-3/2---3---2-------2-3-----------|

|-2---2-------4----------------|-----2-------2---2---------------|

|-------------4----------------|---------------------------------|

|------------------------------|---------------------------------|

|------------------------------|---------------------------------|

 

F F

world's closing in, there's no need to pretend, set me

|-5-----6-----------5-------------|-5-----6---------5-----------|

|---6-----6---------6-------------|---6-----6-------6-----------|

|-----5-----7---------------------|-----5-----7-----------------|

|---------------------------------|-----------------------------|

|---------------------------------|-----------------------------|

|---------------------------------|-----------------------------|

 

Dm Gm Csus C

free darlin' rescue me oh

|-5-----6---------5----------------|---------------------|

|---6-----6-------6----------------|-6/5---6-----5-----5-|

|-----5-----7----------------------|-----5-----5-------5-|

|----------------------------------|---------------------|

|----------------------------------|---------------------|

|----------------------------------|---------------------|

 

Gm Am

I don't want to let you go so I'm standin' in your way.

|---------------------------------------|----------------------------|

|-----3--------------------3------------|-----3----------------3-----|

|---5-----5--------------5-----5--------|---5-----5----------5-----5-|

|-5--------------------5----------------|-5----------------5---------|

|---------------------------------------|----------------------------|

|---------------------------------------|----------------------------|

 

Bb C

I never needed anyone like I'm needin' you today.

|-------------------------------------|-------------------|

|-----3--------------------3----------|--- -6-----5---5---|

|---5-----5--------------5-----5------|---5-----5-----5---|

|-5--------------------5--------------|-5-------------5---|

|-------------------------------------|-------------------|

|-------------------------------------|-------------------|

 

NC

Do I have to say the words?

 

D G

|------------------------|

|----3--3--3---5---6-----|

|----------------------3-|

|------------------------|

|------------------------|

|------------------------|

 

Do I have to tell the truth?

 

C F

|--------------------------|

|----5--5--5---6---6b(1)---|

|------------------------2-|

|--------------------------|

|--------------------------|

|--------------------------|

 

Do I have to shout it out?

 

Bb G

|------------------------|

|----3--3--3---5---6-----|

|----------------------3-|

|------------------------|

|------------------------|

|------------------------|

 

Do I have to say a prayer?

D

 

|-------------|

|-3p1---3---1-|

|-----2---2---|

|-------------|

|-------------|

|-------------|

 

Bb C

Must I prove to you, how good we are together? Do I have to say the words.

 

(repeat)

 

Solo:

 

|---------------------------|-------------------13-------------|

|--11^-----11^--(11)-8--11^-|-11---13^------13^-----13^13--11--|

|---------------------------|----------------------------------|

|---------------------------|----------------------------------|

|---------------------------|----------------------------------|

|---------------------------|----------------------------------|

 

|----------15--------12--13/12\10-----|-10-----13---10--------------------|

|-13--15^-----15^------------------15-|----13^---13^----------------------|

|-------------------------------------|---------------12^(12)-10/12\10/12\|

|-------------------------------------|-----------------------------------|

|-------------------------------------|-----------------------------------|

|-------------------------------------|-----------------------------------|

 

 

 
 
 
     
 
 
 

инженеров.netДомашняя страницаНезависимый морской сайтПортал для гитаристовПриколы, юмор, анекдоты

 
обновлен 24.12.2011
в сети с 06.03.2004
 
 
Неофициальный морской сайт Домашняя страница Яндекс цитирования Internet Map Rambler's Top100
Учет посещений на народе

все тексты песен являются собственностью их автора. песени взяты из открытых источников. на сайте размещены с целью ознакомления. при использовании материалов сайта ссылка на сайт обязательна.

по всем вопросам стучитесь в асю или пишите на электропочту

идея, дизайн, редактирование Леха ZaG Загрядский

zagstudio