-
 
Guitar Pro
 
 
     
 
 

, , ,



Bryan Adams - All I Want Is You

 

Verse:

 

D G

Don't want diamonds don't want gold

D G

Don't need no fashion don't wanna be cool

D G

Don't wanna hustle just to get thru

D G

When it all comes down babe

A

All I want is you

 

Verse2:

D G

Don't wanna argue don't wanna fight

D G

Don't want no politics babe all thru the night

D G

I told ya before - gonna tell ya once more

D G

For the last time baby open up your door

 

Chorus:

D A G D B A

All I want is you all I want is you

D A G

Not any old girl will do

D B A

All I want is you

D G

If ya don't need love ya gotta be nuts

D G

The heaviest metal always rusts

D G

Just you and me babe hangin' tough

D ? A G

It's gotta be it's gotta be it's gotta be love or bust

 

Verse:

 

Don't need a doctor don't need a nurse

 

Don't need a prescription babe

 

Only make me feel worse

 

Don't need a license don't need insurance

 

Don't need a ticket where we're goin' babe

 

You got my assurance ya

 

I told ya before - gonna tell ya once more

 

For the last time baby open up your door

 

Chorus

 

Bryan Adams - Back To You

 

Intro:

 

C Am F Gsus4 (x2)

 

Fill 1 - Guitar 2 with slide (you can use your finger, I did) (2nd

time):

(C) (Am) (F) (Gsus4)

E|-3/8--8/5--5/3/1-1-1-0--1/8--8-8/7-7/5-5/3--------

B|--------------------------------------------------

G|--------------------------------------------------

D|--------------------------------------------------

A|--------------------------------------------------

E|--------------------------------------------------

I've been

 

C Am

I've been down, I've been beat

F Gsus4

I've been so tired that I couldn't speak

C Am

I've been so lost that I could not see

F Gsus4

I wanted things that were out of reach

C Am

Then I found you, and you helped me through

F Gsus4

And you showed me what to do

F E

That's why, I'm coming back to you

 

Am F Gsus4 G

Like a star that guides a ship, across the ocean

Am F Gsus4 G

That's how your love can take me home, back to you

Em Am Em Am

And if I wish upon that star, that someday I'll be where you are

F Gsus4 G

I know that day is coming soon, yeah I'm coming back to you

 

C Am F Gsus4 (with Fill 1)

 

You've been alone, you didn't show it

You've been in pain and I did not know it

You let me do what I needed to do,

You were there when I needed you

Might have let you down, might have messed you around

But you never changed your point of view

That's why, I'm coming back to you

 

Chorus

 

Am F Gsus4 G

 

G Am F Gsus4

I'm coming back to you

G Am F Gsus4

I'm coming back to you

G Am F Gsus4

I'm coming back to you

G Am F Gsus4

I'm coming back to you

G Am F Gsus4

That day is coming soon

G Am F Gsus4

I'm coming back to you

 

G Am F C/G

 

(Thank you! Back To You!)

 

Bryan Adams - Before The Night Is Over

 

|--12--11-11-9-9-7-7-7-9--7-----| 3 Times

|-------------------------------|

|-------------------------------|

|-------------------------------|

|-------------------------------|

|-------------------------------|

 

|--15--14-14-12-12-10-10-10-12--10---|

|------------------------------------|

|------------------------------------|

|------------------------------------| 3 Times

|------------------------------------|

|------------------------------------|

 

Vers :

 

D A Bm G

 

Chorus :

 

D A Bm G

 

Bryan Adams - Best Of Me

 

C#m E A E

sometimes words are hard to find

G#m A B

i'm looking for that perfect line

A E G#m B

to let you know you're always on my mind

E Eaug A

ya this is love - n' i've learned enough to know

A6 E

i'm never lettin' go

G#m B

no, no, no - won't let go

 

Chorus:

E C#m

when you want it - when you need it

A F#m

you'll always have the best of me

E C#m

i can't help it - believe it

A F#m

you'll always get the best of me

 

Verse 2: same as verse 1

i may not alway s know what's right

but i know i want you here tonight

gonna make this moment last for all your life

oh ya this is love - n' it really means so much

i can tell from every touch

no, no, no - can't get enough

 

(Chorus)

 

Solo: play four times

 

E---0-----0------0--0--0---0-----0----0----0--0---

B---7h9--9b1/2--7--5--5---0h2--5h7--7b--7--5------

G-------------------------------------------------

D-------------------------------------------------

A-------------------------------------------------

E-------------------------------------------------

 

(play last 3 lines of verse 1)

 

(Chorus)

 

(Chorus played up one tone)

 

Bryan Adams - Black Pearl

 

Intro: F#m7

 

 

Verse 1:

 

F#m7(no 3d)

Deep down in Mississippi

I found my sweet delta blues.

She weaved a little southernly,

Made a little voodoo.

E

She was born the bright side of midnight

When her mama was seventeen.

F#m7

She was a hot blooded, God fearin' gospel girl,

The finest that I'd ever seen.

Oh.

 

Bridge:

 

C# D

She's black coffee. Little bit o' cream;

A E

Sweet brown sugar, my midnight dream.

 

F#5 - F#5 - A5 - Ab5 - F#5

 

 

Chorus:

 

F#7(no3rd)

Black Pearl,

Yeah, my kinda girl.

Just the kind of thing to rock my world.

Black Pearl,

She's my kinda girl.

 

 

Verse 2 (same as verse 1):

 

Met her in a dixie diner,

Put on the southern hospitality.

I can still smell her sweet molasses

Running all over me.

We started rollin' like a river,

Like a twister tearin' through the town.

We we're tongue-tied, satisfied, southern fried.

As she drove this ol' dixie down.

 

 

Bridge and chorus:(same as before)

 

 

Middle 8:

 

B

Yeah, she's alright. Yeah, she's okay.

C#

Well, makin' love all night.

D

Yeah, really made my day.

 

 

solo: same as verse

 

 

ending:

 

E

She was born the bright side of midnight

When her mama was seventeen.

F#m7

She was a hot blooded, God fearin' gospel girl,

The finest that I'd ever seen.

 

 

Bridge:

 

C# D

She's black coffee. Little bit o' cream;

A E

Sweet brown sugar, my midnight dream.

 

F#5 - F#5 - A5 - Ab5 - F#5

Hey! Hey!

 

Bryan Adams - Black Pearl

 

Intro Riff

-------------------------------------------------------

--/5-5-5-5--5-5----------------------------------------

--/6-6-6-6--6-6------4-2-------------------------------

-------------------------4---2-4~----------------------

---------------------------4---------------------------

-------------------------------------------------------

(start Shuffle Lead Plays this)

Riff 2

------------------------------------------------

----------------------5-5---5-5-5-5----5--------

-4b--2-----4-2--------6-6---6-6-6-6----6--------

-------4--------4-------------------------------

------------------------------------------------

------------------------------------------------

F# Shuffle Played By Adams (rythem)

During Verse Chorus and Riff#2

 

(Palm Mute Shuffle during Verse)

F#

------------------------------------------------

------------------------------------------------

------------------------------------------------

------------------------------------------------

-4-4-4---4-4-4-4/6\4----------------------------

-2-2-4-5-2-2-0-2--------------------------------

(note the slide at the end is not in the song..I add it for a neat effect when playing live)

 

During the Verse the Shuffle Goes to E and then B

E

------------------------------------------------

------------------------------------------------

------------------------------------------------

------------------------------------------------

-7-7-9-10--7-7---7------------------------------

---------------10-------------------------------

 

B

------------------------------------------------

------------------------------------------------

------------------------------------------------

--4-4-4---4-4-4-4-------------------------------

--2-2-4-5-2-2-0-2-------------------------------

------------------------------------------------

(Note the slide works in the E and B shuffles just the same..

If you slide the E shuffle you can slide down into the B shuffle)

 

Prechorus

Rythem Guitar C# D A E

(note I like to add a slide on the low E string between D and (open) A chords)

Lead in our band improvises in the scale of F# penatonic during the prechorus

 

C# D A E

Black coffee Little bit o Cream Sweet brown sugar my midnight dream

Then back into F# shuffle for chorus (do not palm mute chorus)

 

Bridge

Chords B C# D

B C# D

Yeah shes alright yeah shes ok Well making love all night Really made my day

 

Ahh the Solo

These are all 1/4 bends | This is a full bend on the 4 and a 1/2 bend on the 5 & 6's

--------------------------------------2-2-2-2-----2-2-----2-2--6b-

------------------------------4-2-----2-2-2-2- 5b-2-2--6b-2-2-----

-2b-----2b--2b--------2b------4-2--4b-----------------------------

-----4----------4-4-4-----4---------------------------------------

------------------------------------------------------------------

------------------------------------------------------------------

 

Thats it, have fun

-B

 

Bryan Adams - Cant Stop This Thing We Started

 

Intro-

standard Tuning

Rock Shuffle= 110

 

(1) YEAH!

 

E|-5------5----5------5------5------5------5-------5-----|

B|--3------3----3------3------3-------3------3------3----|

G|----2------2----2------2------2-------2------2------2--|

D|-------------------------------------------------------|

A|-------------------------------------------------------|

E|-------------------------------------------------------|

(2)

E|-------7---5-------7----5-----5---4--------5---4--------|

B|----7-----------7----------5------------5---------------|

G|--7----------7----------4------------4------------------|

D|--------------------------------------------------------|

A|--------------------------------------------------------|

E|--------------------------------------------------------|

play (2) about 4 more times

 

{Play (3) 4 times for each Verse}

 

(3) You might stop a hurricane, might even stop....

E|-----2--------2----------------------------------------|

B|-----2--------2-----2--2---(2)---2-------2/3---2/3-----|

G|-----2--------2-----2--2---(2)---2-------2-----2-------|

D|-0---------0--------2--2---(2)---2-------2/4---2/4-----|

A|--------------------0--0---(0)---0-------0-----0-------|

E|-------------------------------------------------------|

(3) You might have had a dozen other guys, but if you....

E|-----2--------2----------------------------------------|

B|-----2--------2-----2--2---(2)---2-------2/3---2/3-----|

G|-----2--------2-----2--2---(2)---2-------2-----2-------|

D|-0---------0--------2--2---(2)---2-------2/4---2/4-----|

A|--------------------0--0---(0)---0-------0-----0-------|

E|-------------------------------------------------------|

 

 

{PLAY (2) X AMOUNT OF TIMES}

I'm goin one way, your way. Now it's such a.......

(2)

E|-------7---5-------7----5-----5---4--------5---4--------|

B|----7-----------7----------5------------5---------------|

G|--7----------7----------4------------4------------------|

D|--------------------------------------------------------|

A|--------------------------------------------------------|

E|--------------------------------------------------------|

 

Can't stop this thing we start - ed. Ya gotta know when it's

right

E|--12-14-17-17-14-17----17----17--------------(17)--------|

B|--12-14-17-17-14-17----17----17--------------(17)--------|

G|---------------------------------------------------------|

D|---------------------------------------------------------|

A|---------------------------------------------------------|

E|---------------------------------------------------------|

 

I can't stop this course we plo - ted.

(NOTE*: hammer 1st 5 to second 5)

*

E|--------5--------------------------------0--9--10--9----------|

B|---5--7------5-----------------------------------------10-----|

G|--------------------------------------------------------------|

D|--------------------------------------------------------------|

A|--------------------------------------------------------------|

E|--------------------------------------------------------------|

 

This thing called love we got it. Ain't no place for the broken....

E|-------------------------------8---6--------------------------|

B|-----------------------------6-------5------------------------|

G|---------------------------5-----------6-------------5----6---|

D|--------------------------------------------------------------|

A|--------------------------------------------------------------|

E|--------------------------------------------------------------|

 

SOLO

 

E|--------------------------------------------------------------|

B|-----^---10-------10----10----------12BEND12---(12)----12-----|

G|----9/11------11-----------------11---------------------------|

D|--------------------------------------------------------------|

A|--------------------------------------------------------------|

E|--------------------------------------------------------------|

 

E|-12-------------------------------------12--------------------|

B|----12BEND(12)--10/12-----10---12BEND---------12BEND(12)------|

G|--------------------------------------------------------------|

D|--------------------------------------------------------------|

A|--------------------------------------------------------------|

E|--------------------------------------------------------------|

(Tremlo)

E|--------------------------------------------------------------|

B|--10-------12-----10---10---------10---10---10--12----10------|

G|---------------11--------------11-------------------------11--|

D|--------------------------------------------------------------|

A|--------------------------------------------------------------|

E|--------------------------------------------------------------|

 

E|-12/12--12/12--12/12-12---12---12---12/14-14-14-14-14-14\12-12|

B|-12/14--12/14--12/14-12---12---12---12/14-14-14-14-14-14\12-12|

G|--------------------------------------------------------------|

D|--------------------------------------------------------------|

A|--------------------------------------------------------------|

E|--------------------------------------------------------------|

 

E|-12--12--12--12-14-17-17-14-17-17-----17----17----------------|

B|-12--12--12--12-14-17-17-14-17-17-----17----17----------------|

G|--------------------------------------------------------------|

D|--------------------------------------------------------------|

A|--------------------------------------------------------------|

E|--------------------------------------------------------------|

 

Bryan Adams - Christmas Time

 

Verse1

C Em Am C

we waited all through the year

F G

for the day to appear

C E7 Am Am7 G

when we could be together in harmony

C Em Am C

you know the time will come

F G

peace on earth for everyone

C E7 Am Am7 Dm G

and we can live forever in a world where we are free

Dm G

let it shine for you and me

 

Chorus

C

there's something about christmas time

F

something about christmas time

C G

that makes you wish it was christmas everyday

C

to see the joy in the children's eyes

F

the way that the old folks smile

C G C

says that christmas will never go away

 

verse2 (same pattern as verse 1)

 

we're all as one tonight

makes no difference if your black or white

cause we can sing together in harmony

i know its not too late

the world would be a better place

if we can keep the spirit more than one day in the year

send a message loud and clear

 

play chorus

 

 

Bridge

G C

its the time of year when everyone's together

G C

we'll celebrate here on christmas day

Am

when the ones you love are there

D7 G F

you can feel the magic in the air

Em G

you know its everywhere

C

theres something about christmas time (pause)

F

something about christmas time

 

 

chorus goes a note higher

D

there's something about christmas time

G

something about christmas time

D A

that makes you wish it was christmas everyday

D

to see the joy in the children's eyes

G

the way that the old folks smile

D A C

says that christmas will never go away

 

Bryan Adams - Cloud Nomber Nine

 

Intro : C

 

Solo :

|------0-----1--0------0------0------1--0---------------------|

|---1----1----------1------1------1----------1-----------------|

|------------------------------------------------------------------|

|------------------------------------------------------------------|

|------------------------------------------------------------------|

|------------------------------------------------------------------|

 

 

C

Clue number one was when you knock on my door

F

Clue number two was the look that you wore

G

That's when I knew it was a pretty good sign

F C

That something was wrong up on cloud number nine

 

Bridge:

G C

(intro solo)

Well it's a long way up and we won't come down tonight

G F

G

Well it maybe wrong but baby it sure feels right

 

Chorus:

C

And the moon is up and the stars are bright

F

And whatever comes gonna be alright

G F

Cause tonight you will be mine

C

Up on cloud number nine

C

And there ain't no place that I rather be

F

And we can't go back but you're here with me

G F

Yeah the weather is really fine

C

Up on cloud number nine

 

Verse 2:

Now he hurt you and you hurt me

and that wasn't the way it was supposed to be

so baby tonight let's leave the world behind

and spend sometime up on cloud number nine

 

Bridge:

Well it's a long way up and we won't come down tonight

Well it maybe wrong but baby it sure feels right

 

Chorus:

And the moon is up and the stars are bright

And whatever comes gonna be alright

Cause tonight you will be mine

Up on cloud number nine

And there ain't no place that I rather be

And we can't go back but you're here with me

Yeah the weather is really fine

Up on cloud number nine

 

(Solo : C Am G)

 

G

Well we'won't come down tonight

G

Yeah we won't come doen tonight

G

No we won't come down tonight.....

 

Chorus:

And the moon is up and the stars are bright

And whatever comes gonna be alright

Cause tonight you will be mine

Up on cloud number nine

And there ain't no place that I rather be

And we can't go back but you're here with me

Yeah the weather is really fine

Up on cloud number nine

 

 

G

We can watch the world go by

C

Up on cloud number nine

 

Bryan Adams - Cloud Number Nine

 

e-------------2------2\3--------2---------2-----------2----------2/3--------2-------------2-------------|

b--------3-------3-------------------3----------3-----------3-----------------------3-----------3-------|

g-------------------------------------------------------------------------------------------------------|

d-------------------------------------------------------------------------------------------------------|

a-------------------------------------------------------------------------------------------------------|

E-------------------------------------------------------------------------------------------------------|

Immediately start after last pluck

 

D A D

Clue number one was when you knocked on my door

G

Clue number two was the look that you wore

G D A

That?s when I knew it was a pretty good sign

G D

Something was wrong upon cloud number nine

D A G D

Well it?s a long way up and we won?t come down tonight

D A G

Well it may be wrong but baby it sure feels right

A D A D

cause the moon is up and the stars are bright

G

And whatever comes gonna be alright

A G A

Cause tonight you will be mine

D

Upon cloud number nine

A D A D

And there ain?t no place that it rather be

G

And we can?t go back but you here with me

A G A

Yeah the weather is really fine

D

Upon cloud number nine

 

 

Now he hurt you and you hurt me

and that wasn't the way it was supposed to be

so baby tonight let's leave the world behind

and spend sometime up on cloud number nine

 

 

Well it's a long way up and we won't come down tonight

Well it maybe wrong but baby it sure feels right

 

 

And the moon is up and the stars are bright

And whatever comes gonna be alright

Cause tonight you will be mine

Up on cloud number nine

And there ain't no place that I rather be

And we can't go back but you're here with me

Yeah the weather is really fine

Up on cloud number nine

 

 

SOLO

 

 

A

Well we'won't come down tonight

A

Yeah we won't come doen tonight

A

No we won't come down tonight.....

 

 

And the moon is up and the stars are bright

And whatever comes gonna be alright

Cause tonight you will be mine

Up on cloud number nine

And there ain't no place that I rather be

And we can't go back but you're here with me

Yeah the weather is really fine

Up on cloud number nine

 

A G A

We can watch the world go by

D

Up on cloud number nine

 

Bryan Adams - Cuts Like A Knife

 

verse 1:(repeat D | G Cadd2 for verses)

D G C(add2) D G (Caad2)

Drivin home this evening,I could of sworn we had it all worked out.

You had this boy believin' way beyond the shadow of a doubt.

Then I heard it on the street, I heard you might have found somebody new.

D

Well who is he baby ?

G D

Who is he and tell me what he means to you ?

A

I took it all for granted,

Bm C(add2) G

But how was I to know that you'd be letting go.

 

CHORUS:

D G C(add2)

Now it cuts like a knife,

D G C(add2)

But it feels so right.

D G C(add2) D G C(add2)

It cuts like a knife but it feels so right

 

 

There's time I've been mistaken

There's times I thought I'd been misunderstood

So wait a minute darlin'.

Can't you see we did the best we could?

This wouldn't be the first time

Things have go astray

Now you've thrown it all away.

 

Ok it is not much, but I hope I helped anyone. If the chords are not exactly

there where they should be, then place them there by yourself.

 

There is a part at the end when you play D for some time and then again begin

with D-G-Cadd2. (At least on my live track)

 

Bryan Adams - Do I Have To Say The Words

 

INTRO : D G9 D Gmaj7

 

 

VERSE 1 :

[D] [G]

Rescue me from the mire

[D] [G]

whisper words of desire

[D] [Gm7] [A]

rescue me darlin rescue me

 

with your arms open wide

 

want you here by my side

[D] [Bm7] [A]

come to me darlin rescue me

[F] [Bb]

when this worlds closin in

[F] [Bb]

theres no need to pretend

[Dm7] [C7sus] [C7]

set me free darlin rescue me

 

PRE CHORUS

[Gm7]

I dont wanna let you go

[Am7]

So im standing in your way

[Bb]

I never needed anyone

[C7sus]

Like i need you today

 

CHORUS

Dm7

Do i have to say the words?

Gm7 C7

Do i have to tell the truth?

F Bb

Do i have to shout it out?

Gm7 C7 Dm7

Do i have to say a prayer?

Bb

Must a proove to you

C7

How good we are together?

Do i have to say the words?

 

 

VERSE 2 :

 

Rescue me from despair

Tell me you will be there

Help me please darlin rescue me

Every dream that we share

Every cross that we bear

Can't you see darlin rescue me

 

 

REPEAT PRE CHORUS/CHORUS

 

 

GUITAR SOLO : Bb/C/Bb F/C/Bb

 

 

REPEAT CHORUS

 

Bryan Adams - Do I Have To Say The Words

 

Intro (Fig.1):

 

D G(9) D Gmaj7

|-2-----3-----5---|-2-----3-----2----|

|---3-----3-------|---3-----3--------|

|-----2-----2-----|-----2-----2------|(repeat twice)

|-----------------|------------------|

|-----------------|------------------|

|-----------------|------------------|

 

 

 

D G(9) D G(9) D

Rescue me from the mire, whisper words of desire, rescue me,

Bm7 A D/A A7

darlin' rescue me. with your

 

D G(9) D G(9)

arms open wide, want you here by my side , come to

|-------0--------------------|-------0---------------------|

|---3----------0-------------|---3-----------0-------------|

|-2---2--------0-------------|-2---2---------0-------------|

|----------------------------|-----------------------------|

|----------------------------|-----------------------------|

|----------------------------|-----------------------------|

 

D Bm7 A

me darlin' rescue me when there's

|-------0----------------------|--------------------------5------|

|---3---------3----------------|-3/2---3---2-------2-3-----------|

|-2---2-------4----------------|-----2-------2---2---------------|

|-------------4----------------|---------------------------------|

|------------------------------|---------------------------------|

|------------------------------|---------------------------------|

 

F F

world's closing in, there's no need to pretend, set me

|-5-----6-----------5-------------|-5-----6---------5-----------|

|---6-----6---------6-------------|---6-----6-------6-----------|

|-----5-----7---------------------|-----5-----7-----------------|

|---------------------------------|-----------------------------|

|---------------------------------|-----------------------------|

|---------------------------------|-----------------------------|

 

Dm Gm Csus C

free darlin' rescue me oh

|-5-----6---------5----------------|---------------------|

|---6-----6-------6----------------|-6/5---6-----5-----5-|

|-----5-----7----------------------|-----5-----5-------5-|

|----------------------------------|---------------------|

|----------------------------------|---------------------|

|----------------------------------|---------------------|

 

Gm Am

I don't want to let you go so I'm standin' in your way.

|---------------------------------------|----------------------------|

|-----3--------------------3------------|-----3----------------3-----|

|---5-----5--------------5-----5--------|---5-----5----------5-----5-|

|-5--------------------5----------------|-5----------------5---------|

|---------------------------------------|----------------------------|

|---------------------------------------|----------------------------|

 

Bb C

I never needed anyone like I'm needin' you today.

|-------------------------------------|-------------------|

|-----3--------------------3----------|--- -6-----5---5---|

|---5-----5--------------5-----5------|---5-----5-----5---|

|-5--------------------5--------------|-5-------------5---|

|-------------------------------------|-------------------|

|-------------------------------------|-------------------|

 

NC

Do I have to say the words?

 

D G

|------------------------|

|----3--3--3---5---6-----|

|----------------------3-|

|------------------------|

|------------------------|

|------------------------|

 

Do I have to tell the truth?

 

C F

|--------------------------|

|----5--5--5---6---6b(1)---|

|------------------------2-|

|--------------------------|

|--------------------------|

|--------------------------|

 

Do I have to shout it out?

 

Bb G

|------------------------|

|----3--3--3---5---6-----|

|----------------------3-|

|------------------------|

|------------------------|

|------------------------|

 

Do I have to say a prayer?

D

 

|-------------|

|-3p1---3---1-|

|-----2---2---|

|-------------|

|-------------|

|-------------|

 

Bb C

Must I prove to you, how good we are together? Do I have to say the words.

 

(repeat)

 

Solo:

 

|---------------------------|-------------------13-------------|

|--11^-----11^--(11)-8--11^-|-11---13^------13^-----13^13--11--|

|---------------------------|----------------------------------|

|---------------------------|----------------------------------|

|---------------------------|----------------------------------|

|---------------------------|----------------------------------|

 

|----------15--------12--13/12\10-----|-10-----13---10--------------------|

|-13--15^-----15^------------------15-|----13^---13^----------------------|

|-------------------------------------|---------------12^(12)-10/12\10/12\|

|-------------------------------------|-----------------------------------|

|-------------------------------------|-----------------------------------|

|-------------------------------------|-----------------------------------|

 

 

..............

CAPO 1

 

INTRO: C G F G

 

 

Verse 1:

 

C G F G

Look into my eyes, you will see what you mean to me

C G

Search your heart, search your soul and when you

F C G

find me there, you'll search no more

Dm C Dm

Don't tell me it's not worth trying for

Dm C Dm

You can't tell me it's not worth dying for

C/G G C

You know it's true, everything I do, I do it for you

 

 

Verse 2:

 

C G F G

Look into your heart, you will find, there's nothing there to hide

C G F C G

Take me as I am, take my life, I would give it all, I would sacrifice

Dm C Dm

Don't tell me it's not worth fighting for

Dm C Dm

I can't help it, there's nothing I want more

C/G G C

You know it's true, everything I do, I do it for you

 

 

Bridge:

 

Bb Eb Bb F

There's no love like your love, and no other could give more love

C Dm D G

There's no where unless you're there, all the time, all the way

 

F C F

|----------|-------------------------------------------------------9------

|----------|-----------------------------------------9-9------9/11--11-11-

|-8-10-----|-8/10~--/10-8/6-3/6---6/8------6-6--8/10-----6-6--------------

|------8-8-|---------------------------6/8--------------------------------

|----------|--------------------------------------------------------------

|----------|--------------------------------------------------------------

 

C

-------------------------|

11/9/11------------------|

--------8h10--8b-8b-8b-6-| (bend the three 8's one half note each)

-------------------------|

-------------------------|

-------------------------|

 

 

Ending:

 

Dm G

Oh you can't tell me it's not worth trying for

Dm G

I can't help it there's nothing I want more

F C G

Yeah I would fight for you, I'd lie for you, walk the

F Fm

wire for you, yeah I'd die for you

C G F F6 C

You know it's true, everything I do, oh, I do it for you

 

Bryan Adams - Do To You

 

Intro: (D5 - A5 - C5 - D5 - A5 - C5) 4times

 

 

Verse 1:

 

G D A C G D F

If ya love somebody, if ya need someone,

G D A C G D F

If ya want somebody, yeah, well let me be the one.

D A C G D F

I wanna do to you what you do to me.

G D A C G D F

Do to you what you do to me.

 

Verse 2:(same as before)

 

Now let me treat ya right, yeah, show I care.

Cuz every night I'll take ya there

I really wanna

Do to you what you do to me

Do to you what you do to me.

 

 

Bridge:

 

A D/A

I don't want just anything.

A7 A

I just want something real.

Bm

Let down your defences, baby,

G F(add9) F(add9)/D

Show me what you feel.

 

 

Do to you what you do to me

Do to you what you do to me.

 

 

verse 3:(same as others)

 

Should I stay, or should i go

There ain't no question baby, I already know

(I wanna)Do to you what you do to me

(Help me)Do to you what you do to me.

 

 

bridge:(same as before)

 

 

Ending:

 

G D A C G D F

Do to you what you do to me

G D A C G D F

Do to you what you do to me

 

 

repeat whit harmonica solo and continues til the end.

 

Bryan Adams - East Side Story

 

Intro: B, F# ,C#m ,E.

B F#

Verse 1: There was this girl i used to see

C#m E

down on 42nd street

B F#

she'd walk by on her way to work

C#m E

and make the air smell so sweet

 

I used to sit in a coffee shop

sometimes i'd have a cup

when she'd got by she'd light up the sky

like the sun coming up

 

she'd be standing by the bus stop

driver opened up the door

i'd just sit and watch her

getting on the 104

 

B F#

I wanna give her my number

C#m E

wanna tell her my name

B F#

wanna climb on board that cross-town bus

C#m F#

take a chance she feels the same

 

Chorus: B F# C#m E

Its just another east side story

B F# C#m F#

everybodys got a tale to tell

B F# C#m E

and like a hundred guys befroe me

B F# C#m F#

i fell under her spell

B---

Its just another east side story

Verse 2:( Chords same as 1st verse )

Some things you hold on to

some you just let go

seems like the ones which you cant have

are the ones you want the most

 

I think about her sometimes

i wonder if she was real

and if i ever find her

i'm gonna tell her how i feel

Chorus

 

Verse 3:C#m

Its still the same old story

Abm

its still the same old game

E

up there on the east side

F#

life goes on the same

C#m

She never knew my number

Abm

never ever knew my name

E

she climbed on board that cross-town bus

F#

i never saw her again

Chorus

 

Ending:B, F#, C#m E B

Its just another east side story.

 

Bryan Adams - Everything I Do (I Do It For You)

 

Verse 1

D A G A

Look into my eyes, you will see what you mean to me

D A G

Search your heart, search your soul and when you find me there,

G D A

you'll search no more

 

(A) Em D/F# Em/G

Don't tell me it's not worth trying for

D/F# Em D/F# Em/G

You can't tell me it's not worth dying for

D A Dsus2

You know it's true, everything I do, I do it for you

 

Verse 2

D A

Look into your heart, you will find,

G Asus4 A

there's nothing there to hide

(A) D A

Take me as I am, take my life, I would

G D A

give it all, I would sacrifice

 

(A) Em D Em D/E

Don't tell me it's not worth fighting for

(D/E) Em D Em

I can't help it, there's nothing I want more

(Em) D A D Dsus D

You know it's true, everything I do, I do it for you

 

Bridge

D C F

There's no love like your love,

C G

and no other could give more love

D A E A

There's no where unless you're there, all the time, all the way

 

Solo

G D Dsus D G D Dsus D

 

Last Chorus:

D Em A

Oh you can't tell me it's not worth trying for

Em A

I can't help it there's nothing I want more

G D

Yeah I would fight for you,

A G

I'd lie for you, walk the wire for you

Gm

Yeah I'd die for you

D Asus A G G6 D

You know it's true, everything I do, oh, I do it for you

 

Bryan Adams - Get Away

 

Intro: G Am7 C G

 

Verse 1:

 

G

Drove all night from New York City

Am7

in ya best friend's car

C

Knocked on my door 'bout five-thirty

G

Nursin' a broken heart

 

Still got your keys in your back pocket

Still got your jacket on

Back doors open baby, I don't lock it

We can leave anytime we want

 

Bridge:

C

I got my motor runnin'

 

fingers drummin'

D

I never planned to stay

 

Chorus:

 

C

Getaway, you know it's now or never

G

Getaway, nobody lives forever

Am7 C G

We're only waitin' just to make our getaway

 

Verse:

 

 

Hey baby, we were good together

 

Thought you'd always be my girl

 

But lookin' back now we were just too clever

 

Thinkin' love would change the World

 

Bridge

 

C

You know there's no point in waitin'

C

Hesitatin'

C D

We gotta leave today!

 

Bryan Adams - Get Off My Back

 

Intro: G# F C Bb

 

Verse 1:

G# F C

Well you think that you can take me on

Bb G# F C Bb

You must be crazy

G# F C

There ain't a single thing you've done

Bb G# F C Bb

That's gonna phase me

G# F C Bb

Oh, but if you want to have a go

G# F A

I just want to let you know - yeah

 

Chorus:

D C G#

Get off my back and into my game

A D C G#

Get out of my way and out of my brain

A D C G# A

Get outta my face or give it you best shot

C A

I think it's time you better face the fact

Get off my back

 

Keyboard Riff: G# F C Bb G# F C Bb

 

Verse 2: same as Verse 1

You know it's all just a game that I'm playing

Don't think that you can't find a way in

That's what I'm saying

Oh if you want to have a go

I just want to let you know...

 

(Chorus)

 

Break/solo: G# F C Bb G# F C G# F C Bb G# F C Bb G#

 

Bridge:

G# F C Bb

Oh, but if you want to have a go

G# F A

I just want to let you know - get off - get off - yeah - get off my back

 

(Chorus)

 

Bryan Adams - Have You Ever Really Loved A Woman

 

*And the Intro:

 

E|------------|-------------|-----------|

B|------------|-------------|-----1-----|

G|-0---2-3-2--|---0-2-3-2---|---0---3-2-|

D|------------|-------------|-----------|

A|------------|-------------|-----------|

E|

*The whole song (except for the solo and chorus) is arpeggioed

by hitting the 5th, 4th, 3rd, then 2nd and holding. In other

words, the first chord,

Eb, is played:

E|------------|

B|---------8--|

G|-------8----|

D|-----8------|

A|--6---------|

E|------------|

 

*Also, there are three different "step downs".

Fig1

E|---------|

B|---------|

G|--3---2--|

 

Fig2

E|---------|

B|--1------|

G|------3--|

 

Fig3

E|---------|

B|---------|

G|-0-----1-|

D|----4----|

 

*So it goes:

 

Eb, Cm, D, Bb, Fig1, F, Cm, Fig2, Fig3, C, G

 

*Chorus:

 

G, D, G, Em7, Am7,D,Am7,D, Am7,D,Am7,D, G

 

*Bridge:

 

Eb, G, D, G

 

*solo:

 

Eb, C (something? couldn't figure this one out.),

D, Bb,F, Bb, F

 

*then it goes back to arpeggios:

 

Cm, Fig2, Fig3

 

*Back to the chorus.

 

*LYRICS:

 

To really love a

Eb Cm D(barred)

woman, to understand her, you've got to know her deep inside

Bb Fig1

Hear every thought, see every dream,

F

and give her wings when she wants to fly

Cm

Then when you find yourself lying helpless

Fig2 Fig3

in her arms, you know you really

C G

love a woman

 

*CHORUS:

G D

When you love a woman, you tell her that she's really wanted

D G

When you love a woman, you tell her that she's the one

G Em7 Am7 D Am7 D

She needs somebody, to tell her that it's gonna last forever

{2nd}(She needs somebody, to tell her that you'll

always be together)

Am7 D Am7

So tell me have you ever really...really,

D G

really ever loved a woman

 

*2nd VERSE

 

To really love a woman, let her hold you,

till you know how she needs to be touched

You've got to breathe her, really taste her

till you can feel her in your blood

And when you see your unborn children in her eyes

you know you really love a woman

 

*BRIDGE:

 

You've got to

Eb G

give her some faith, hold her tight, a little tenderness

G

you've got to treat her right

D G

She will be there for you taking good care of you

 

You really gotta love your woman

 

*SOLO*

Cm Fig2 Fig3

And when you find yourself lying helpless in her arms,

 

you know you really love a woman

 

CHORUS 3X

 

Bryan Adams - Heaven

 

Intro:(C - Am - G6 - F)

 

Verse 1:

 

C Am G

Oh - thinkin' about all our younger years

Dm Am

There was only you and me

Bbsus Gsus G

We were young and wild and free

C Am G

Now nothin' can take you away from me

Dm Am

We've been down that road before

Bb(add2) F/A

But that's over now

Gsus G

You keep me comin' back for more

 

 

Chorus:

 

F G Am

Baby you're all that I want

C F

When you're lyin' here in my arms

F G Am

I'm findin' it hard to believe

G

We're in heaven

F G Am

And love is all that I need

C F

And I found it there in your heart

F G Am

It isn't too hard to see

G

We're in heaven

 

 

Verse 2:(same as before)

C Am G

Oh - once in your life you find someone

Dm Am

Who will turn your world around

Bbsus Gsus G

Bring you up when you're feelin' down

C Am G

Ya - nothin' could change what you mean to me

Dm Am

Oh there's lots that I could say

Gb F/A

But just hold me now

Gsus G

Cause our love will light the way

 

 

Chorus :

 

F G Am

Baby you're all that I want

C F

When you're lyin' here in my arms

F G Am

I'm findin' it hard to believe

G

We're in heaven

F G Am

And love is all that I need

C F

And I found it there in your heart

F G Am

It isn't too hard to see

G

We're in heaven

 

 

Bridge:

Dm Em F

I've bin waitin' for so long

G Am

For somethin' to arrive

G

For love to come along

C Dm Em F

Now our dreams are comin' true

C

Through the good times and the bad

G

Ya - I'll be standin' there by you

 

 

Solo:(F - G - Am - C - F - F - G - Am - G)

 

repeat chorus til the end.

 

Bryan Adams - Heaven

 

G Em D

Oh, thinkin' about all our younger years,

Am Em

there was only you and me,

Am D

we were young and wild and free.

G Em D

Now nothin' can take you away from me,

 

Am Em Am

we've been down that road before, but that's over now,

 

D

you keep me comin' back for more.

 

Chorus

 

C D Em G C

Baby you're all that I want, when you're lyin' here in my arms,

 

C D Em D

I'm findin' it hard to believe, we're in heaven.

 

C D Em G C

And love is all that I need, and I found it here in your heart,

 

C D Em D

It isn't too hard to see, we're in heaven.

 

Oh, once in your life you find someone,

who will turn your world around,

Bring you up when you're feelin' down. Ya, nothin' could change

what you mean to me. Oh there's lots that I could say,

but just hold me now, cause our love will light the way.

 

[Repeat Chorus]

 

Am G-C D Em

I've been waitin' for so long, for somethin' to arrive,

Am D

For love to come along.

 

Now our dreams are comin' true,

 

Through the good times and the bad,

DDDDDD

Ya, I'll be standin' there by you.

 

Bryan Adams - Heaven Unplugged

 

INTRO

E|---------------------

B|-----1-----(1)-----1-

G|-----0-------------0-

D|---2-----2-------2--- 2 times

A|-3-----3-------3-----

E|---------------------

 

FIRST VERSE:

 

E|------0-------------------------3-----------------------------1-------0-

B|-1----1-------------------------3----------3----------------3---------1-

G|-0----2-------------------------0--------0----------------2--------2----

D|-2----2-------------------------0----(0)----------------0--------2------

A|-3----0-------------------------2---------------------------------------

E|--------------------------------3---------------------------------------

Oh, thinking about all our younger years, there was only you and me

 

E|-------------1--------------3---

B|-------------3--------------3---

G|---------2--------------0-------

D|-------0----------------0-------

A|------------------------2-------

E|------------------------3-------

We were young and wild and free

 

 

 

E|------0-------------------------3--------------------------------1-------0-

B|-1----1-------------------------3----------3-------------------3---------1-

G|-0----2-------------------------0--------0-------------------2--------2----

D|-2----2-------------------------0----(0)-------------------0--------2------

A|-3----0-------------------------2------------------------------------------

E|--------------------------------3------------------------------------------

Now, nothing can take you away from me, we've been down that road before

 

 

E|----------------1----------------------3-----------------

B|--------3-------3-----3----------------3-----------------

G|----2--------2----2-0-0----------------0-----------------

D|-0-------------------------------------0-----------------

A|---------------------------------------2-----------------

E|---------------------------------------3-----------------

But that's over now, you keep me comin' back for more

 

 

CHORUS

 

E|----1----------3-----------0----(0)----------------------------0--------

B|----1----------3-----------1-----1-------------------1---------1-----1--

G|----2----------0-----------2---2---------------------0---------2-----2--

D|----3----------0-----------2---2-------------------2---2-------2--------

A|---------------2-----------0---------------(2)--3--------3---------0----

E|---------------3--------------------------------------------------------

And Baby you're all that i want, when you're lying here in my arms

 

 

E|-----1---------3-------0------0------------------------

B|-----1---------3-------1------1---------------3--------

G|-----2---------0-------2-----------------0--------0----

D|-----3---------0-------2----2----2-------------------0-

A|---------------2-------------------0-------------------

E|---------------3---------------------3-----------------

I'm finding it hard to believe, we're in heaven

 

 

E|----1----------3-----------0----(0)----------------------------0--------

B|----1----------3-----------1-----1-------------------1---------1-----1--

G|----2----------0-----------2---2---------------------0---------2-----2--

D|----3----------0-----------2---2-------------------2---2-------2--------

A|---------------2-----------0---------------(2)--3--------3---------0----

E|---------------3--------------------------------------------------------

And Love is all that i need, and i found it there in your heart

 

E|-----1---------3-------0------0-----------------------3--------------------------

B|-----1---------3-------1------1---------------3---------------3---3------3-----3-

G|-----2---------0-------2-----------------0--------0-----------0---0------0-----0-

D|-----3---------0-------2----2----2--------------------------0----------0---------

A|---------------2-------------------0---------------------2------2---2h3-----3----

E|---------------3---------------------3-------------------------------------------

It isn't to hard to see we're in heaven

 

 

VERSE 2 (Nearly the same pattern as in Verse 1):

 

[C]Oh, [Am]once in your life you [G]find someone

Who will [Dm]turn your world a[Am]round

Bring you [Dm]up when you're feeling [G]down

[C]Yeah, [Am]nothing could change what you [G]mean to me

Oh there's [Dm]lots that I could [Am]say

But just [Dm]hold me now, 'cause our [G]love will light the way

 

CHORUS 2 (The Chords are strummed down)

 

[F]Baby you're [G]all that I [Am]want

When you're [C]lying here in my [F]arms

[F]I'm finding it [G]hard to be[Am]lieve we're in [G]heaven (FILL1)

[F]And love is [G]all that I [Am]need

And I [C]found it here in your [F]heart

[F]It isn't too [G]hard to [Am]see we're in [G]heaven (FILL 2)

 

FILL 1

 

E|-3-----3-

B|---3---3-

G|-------0-

D|-------0-

A|-------2-

E|---------

 

FILL 2

E|----/5--5\3--3\2/3--2--/--5--2--

B|-3------------------3--/--5--3--

G|--------------------------------

D|--------------------------------

A|--------------------------------

E|--------------------------------

 

BRIDGE

 

[Dm]I've been waiting for so [F]long

For [C]something to [Am]arrive

For [Dm]love to come a[G]long

[Dm]Now our dreams are coming [F]true

Through the [C]good times and the [Am]bad

[G]Yeah, I'll be standing there by you.

 

FLUTE SOLO

 

CHORUS (same pattern as the first chorus)

 

OUTRO

E|---------------------

B|-----1-----(1)-----1-

G|-----0-------------0-

D|---2-----2-------2--- 4 times

A|-3-----3-------3-----

E|---------------------

 

Bryan Adams - Ill Always Be

 

A A D/F# A

|----------------|-----0-------5--|-2------------0-|----------------|

|---------2---3--|----------------|-3--------3---2-|----------------|

|---------2------|----------------|-2------------2-|--------------2-|

|----2-----------|----------------|-4------------2-|----------------|

|-0--------------|-0-------0------|-0----0-------0-|----------------|

|----------------|----------------|----------------|----------------|

 

A A D/F# A

|----------------|-----0-------5--|-2------------0-|----------------|

|---------2---3--|----------------|-3-------3h5--2-|----------------|

|---------2------|----------------|-2------------2-|----------------|

|-----2----------|----------------|-4------------2-|----------------|

|--0-------------|-0-------0------|-0----0-------0-|----------------|

|----------------|----------------|----------------|----------------|

 

I swear to you I will always be

E A E A

|-----0----------|----------------|-----0----------|----------------|

|-0-------0------|-------------2--|-0-------0------|-------------2--|

|-1-----------1--|---------2------|-1-----------1--|---------2------|

|----------------|-----2----------|----------------|-----2----------|

|----------------|-0--------------|----------------|-0--------------|

|----------------|----------------|----------------|----------------|

 

there for you There?s nothing I won't do

E A D E

|-----0----------|----------------|----------------|----------------|

|-0-------0------|-------------2--|------------0---|-------------0--|

|-1-----------1--|---------2------|--------2-------|---------1------|

|----------------|-----2----------|-0--------------|-----2----------|

|----------------|-0--------------|----0-----------|----------------|

|----------------|----------------|----------------|-0--------------|

 

I promise you All my life I will

E E/G# A Bm A/C# D!

|----------------|----------------|-----0----------|----------------|

|----------------|-------------2--|-3------3----0--|----------------|

|-----1------1---|---------2------|----------------|-----2-------2--|

|---2------2-----|-----2----------|----------------|---2-------4----|

|-2--------------|-0--------------|-2--------------|-4-------5------|

|--------4-------|----------------|----------------|----------------|

 

live for you we will make it through.

E Fm D E

|----------------|----------------|----------------|----------------|

|--------------0-|----------2-----|--------------0-|--------------0-|

|----------1-----|-----2-------2--|----------2-----|----------1-----|

|------2---------|---4---4--------|--0-------------|------2---------|

|----------------|-4--------------|------0---------|----------------|

|-0--------------|----------------|----------------|--0-------------|

 

CHORUS:

For- ever we will be

D A A/C# D

|----------------|----------------|----------------|----------------|

|---7-----7----5-|---2-------3h5--|--2-------------|--------0-------|

|--7----------6--|---2------------|----------------|-----2----------|

|------7---------|----------------|--------2----0--|----------------|

|----------------|----------------|-----4----------|----------------|

|----------------|----------------|----------------|----------------|

 

To- gether you and me

D A Fm E

|----------------|-----5----------|----------------|----------------|

|--7----------5--|----------------|----------------|--------------0-|

|--7------7---6--|------------2---|--------------2-|----------1-----|

|-----7----------|----------4-----|----------4-----|------2---------|

|--5----------4--|----------------|------4---------|----------------|

|----------------|--------2-------|--2-------------|--0-------------|

 

Oh, and when I hold you Nothing can compare

E A/C# E A/C#

|-----0----------|----------------|-----0----------|----------------|

|--0------0------|------------2---|-0-------0------|----------2-----|

|--1----------1--|-------2--------|-1-----------1--|------2---------|

|----------------|-----2---2----2-|----------------|----2---2----2--|

|----------------|--4-------------|----------------|--4-------------|

|----------------|----------------|----------------|----------------|

 

With all of my heart you know I'll always be....

E A D E

|-----0----------|----------------|----------------|----------------|

|--0------3\2--2-|-----0----------|-------------0--|-------------0--|

|--1-----------2-|--------2---1---|---------2------|----------1-----|

|--------------2-|----------------|--0-------------|------2---------|

|----------------|----------------|------0---------|----------------|

|----------------|----------------|----------------|--0-------------|

 

right there...

A A

|-0--------------|----------------|----------------|-----0-------5--|

|----------------|----------------|----------2---3-|----------------|

|----------------|----------------|----------2-----|----------------|

|------REST------|----------------|------2---------|----------------|

|----------------|----------------|--0-------------|--0------0------|

|----------------|----------------|----------------|----------------|

 

D/f# A

|--2-----------0-|----------------|

|--3------3h5--2-|----------------|

|--2-----------2-|----------------|

|--4-----------2-|------REST------|

|--0---0-------0-|----------------|

|----------------|----------------|

 

VERSE 2:

I believe in us Nothing else could ever

E A E A

|------0---------|----------------|------0---------|----------------|

|--0-------0-----|--------------2-|--0-------0-----|--------------2-|

|--1----------1--|----------2-----|--1----------1--|----------2-----|

|----------------|------2---------|----------------|------2---------|

|----------------|--0-------------|----------------|--0-------------|

|----------------|----------------|----------------|----------------|

 

mean so much. Your the one I trust

E A D E

|------0---------|----------------|----------------|--------------0-|

|--0-------0-----|-------------2--|-------------0--|------------0---|

|--1----------1--|---------2------|----------2-----|----------1-----|

|----------------|------2---------|--0-------------|-----2----------|

|----------------|--0-------------|------0---------|----------------|

|----------------|----------------|----------------|--0-------------|

 

 

Our time has come We're not two people now

E E/G# A Bm A/C# D!

|----------------|----------------|------0---------|----------------|

|----------------|--------------2-|--3------3---0--|----------------|

|--------------1-|----------2-----|----------------|------2-------2-|

|----2-------2---|------2---------|----------------|----2-------4---|

|--2-------------|--0-------------|--2-------------|--4-------5-----|

|----------4-----|----------------|----------------|----------------|

 

we are one yeah, your second to none.

E Fm D E

|----------------|----------------|----------------|----------------|

|--------------0-|---------2------|-------------0--|--------------0-|

|----------1-----|-----2-----2--2-|---------2------|----------1-----|

|------2---------|---4---4----4---|--0-------------|------2---------|

|----------------|-4--------------|------0---------|----------------|

|--0-------------|----------------|----------------|--0-------------|

 

 

CHORUS: (with slight changes, basically the same though)

 

For- ever we will be

D A A/C# D

|----------------|----------------|----------------|----------------|

|---7-----7---5--|----------------|----------------|----------0-----|

|--7---------6---|----------------|----------2-----|-------2--------|

|------7---------|-----REST-------|------2------0--|----------------|

|----------------|----------------|--4-------------|----------------|

|----------------|----------------|----------------|----------------|

 

To- gether a family

D A Fm E

|----------------|-----5----------|----------------|------------0---|

|--7---------5---|----------------|-------------2--|-------0------0-|

|--7------7--6---|------------2---|---------2------|----------1-----|

|-----7----------|----------4-----|-----4----------|-----2----------|

|--5---------4---|----------------|----------------|---2------------|

|----------------|--------2-------|--2-------------|-0--------------|

 

Oh, and when I hold you, nothing can compare

E A/C# E A/C#

|------0---------|----------------|-----0----------|----------------|

|--0------0------|---------2------|--0------0------|----------2-----|

|--1----------1--|-----2-----2----|--1----------1--|------2---------|

|----------------|---2---2-----2--|----------------|----2---2-------|

|----------------|-4--------------|----------------|--4-------------|

|----------------|----------------|----------------|----------------|

 

With all of my heart you know I'll always be

E A D E

|------0---------|----------------|----------------|----------------|

|--0------3\2--2-|-----0----------|--------------0-|--------------0-|

|--1-----------2-|--------2---1---|----------2-----|----------1-----|

|--------------2-|----------------|--0-------------|------2---------|

|----------------|----------------|------0---------|----------------|

|----------------|----------------|----------------|--0-------------|

 

right there... GUITAR SOLO:

E A D c#m Bm

|-0--------------|----------------|--5-----------4-|--------2-4p2---|

|----------------|----------------|--7-----------5-|--------3-------|

|----------------|-------6/7------|--7-----------6-|--------4-------|

|------REST------|----------------|--------0--d----|----0--d--------|

|----------------|----------------|----------------|----------------|

|----------------|----------------|----------------|----------------|

 

A F#m E A

|--0-------------|-----------0----|------0---------|----------------|

|--2------2p0----|-----2---2-----2|--0------0---2--|--------2h3p2---|

|--2----------2--|---2---2-----2--|--1----------2--|----------------|

|----------------|-4--------------|----------------|-----2----------|

|----------------|----------------|------------(0)-|--0-------------|

|----------------|----------------|----------------|----------------|

 

E A

|----------------|--------0---5---|

|----------------|----------------|

|-1--------------|-----2----------|

|---2------------|--2-------------|

|-----2-0---2-0--|----------------|

|---------4------|----------------|

 

LAST CHORUS (DIFFERENT):

For- ever we will be

D A A/C# D

|----------------|----------------|----------------|----------------|

|---7-----7----5-|---2-------3h5--|--2-------------|-------0--------|

|--7----------6--|---2------------|----------------|---2------------|

|------7---------|----------------|--------2----0--|----------------|

|----------------|----------------|-----4----------|----------------|

|----------------|----------------|----------------|----------------|

 

To- gether ooh, just you and me

D A Fm E

|----------------|-----5----------|----------------|------------0---|

|--7------7---5--|----------------|--------------0-|-------0------0-|

|--7----------6--|------------2---|----------2-----|----------1-----|

|-----7----------|----------4-----|------2---------|-----2----------|

|--5----------4--|----------------|----------------|---2------------|

|----------------|--------2-------|--0-------------|-0--------------|

 

The more I get to know you The more I really care

E A/C# E A/C#

|------0---------|----------------|-----0----------|----------------|

|--0-------0-----|----------2-----|-0-------0------|----------2-----|

|--1-----------1-|-----2------2---|-1-----------1--|-----2-------2--|

|----------------|---2---2------2-|----------------|---2---2--------|

|----------------|-4--------------|----------------|-4--------------|

|----------------|----------------|----------------|----------------|

 

With all of my heart you know I'll always be,

E A D E

|------0---------|----------------|----------------|-------------0--|

|--0------3---2--|--------0-------|-------------0--|-----------0----|

|--1----------2--|-----------2-1--|----------2-----|---------1------|

|-------------2--|----------------|--0-------------|-----2----------|

|----------------|----------------|------0---------|----------------|

|----------------|----------------|----------------|-0--------------|

 

And you know I really love you, and nothing can compare

E A/C# E A/C#

|-------0--------|----------------|------0---------|----------------|

|--1--------1----|-----------0--2-|--1------1------|---------2------|

|--0-----------0-|-----2---2------|--0----------0--|-----2-----2----|

|----------------|---2---2--------|----------------|---2---2-----2--|

|----------------|-4--------------|----------------|-4--------------|

|----------------|----------------|----------------|----------------|

 

For all of my life you know I'll always be....

E A D E

|------0---------|----------------|----------------|----------------|

|--1-------3--2--|--------0-------|-------------0--|--------------0-|

|--0----------2--|-----------2-1--|---------2------|----------1-----|

|-------------2--|----------------|--0-------------|------2---------|

|----------------|----------------|------0---------|----------------|

|----------------|----------------|----------------|--0-------------|

 

right there....

A A D/F#

|-0--------------|----------------|-----0-------5--|--2-------------|

|----------------|---------2---3--|----------------|--3-------------|

|----------------|---------2------|----------------|--2-------2-----|

|------REST------|-----2----------|----------------|--4---4---------|

|----------------|--0-------------|--0-------0-----|--0-------------|

|----------------|----------------|----------------|----------------|

 

A "Thankyou very much...

|----------------|--5-------------|----------------|----------------|

|------------5---|----------------|----------------|----------------|

|----------------|----------------|----------------|----------------|

|-------7--------|----LET RING----|----------------|----------------|

|----7-----------|----------------|----------------|----------------|

|-5--------------|----------------|----------------|----------------|

 

Chords:

 

E A

I swear to you

 

E A E A

I will always be there for you

 

D E

There's nothing I won't do.

 

E E/G# A

I promise you

 

Bm A/C# D

All my life I will

 

E Fm

Live for you.

 

D E

We will make it through.

 

D A A/C# D A Fm E

Forever we will be together you and me

 

E A/C# E A/C#

Oh and when I hold you nothing can compare

 

E A D E

With all of my heart you know I'll always be...

 

A A D/F# A

Right there...

 

E A

I believe in us

 

E A E A

Nothing else could ever mean so much

 

D E

Your the one I trust.

 

E E/G# A

Our time has come

 

Bm A/C# D

we're not two people now

 

E Fm

we are one.

 

D E

Yeah, your second to none.

 

D A A/C# D A Fm E

Forever we will be together, a family

 

E A/C# E A/C#

Oh and when and I hold you, nothing can compare

 

E A D E

With all of my heart you know I?ll always be

 

A A D/F# A

Right there...

 

 

(Guitar solo)

 

D A A/C# D A Fm E

Forever we will be together, ooh, just you and me

 

E A/C# E A/C#

The more I get to know you, the more I really care

 

E A D E

With all of my heart you know I'll always be...

 

E A/C# E A/C#

And you know I really love you, and nothing can compare

 

E A D E

For all of my life you know I'll always be...

 

A A D/F# A

Right there...

 

Bryan Adams - Im A Liar

 

Intro :

 

Dm F C G

 

Verse 1:

 

C Am Em

Maybe I told you right from the start you can have me

F

But you can't have my heart

C F G

It's easy enough to say but I couldn't care less

C Am

Yeah I mighta told you you were on my mind

Em F

Guess I talked a pretty good line

C F G

But hey I can't talk all day but I just can't confess...

 

 

Chorus :

C

That I'm a liar

F C

I'm a victim of desire

F C

I'm a moth into the fire

F G

Yeah I'm over my head forget what I said

C

Tell ya I'm a liar

F C

I'm just walking on the wire

F C

And I couldn't get much higher

F G

Yeah I;m over my head forget what I said

Dm F C G x2

Baby I'm a liar

 

 

Verse 2 :

 

Well I mighta told you I was hard to pinnes down

Well you know I was just messing around

Guess you know by now that it's just my way

 

And if want stories I got a few

But this is the truth I swear to you

How many more times do you want me to say?

 

Chorus :

 

That I'm a liar

I'm a victim of desire

I'm a moth into the fire

Yeah I'm over my head forget what I said

Tell ya I'm a liar

I'm just walking on the wire

And I couldn't get much higher

Yeah I;m over my head forget what I said

Baby I'm a liar

 

(Guitar Solo - Dm, F, C, G...)

 

Bridge :

Dm

If I told you to go away

F G

Baby you can't believe a thing I say

 

listen......

 

Chorus :

 

That I'm a liar

I'm a victim of desire

I'm a moth into the fire

Yeah I'm over my head forget what I said

Tell ya I'm a liar

I'm just walking on the wire

And I couldn't get much higher

Yeah I;m over my head forget what I said

Baby I'm a liar

 

Dm, F, C, G...Dm.

 

Bryan Adams - On A Day Like Today

 

Intro: Am 5)---0---2--- C G(3 ëàä) Ñ( 3 ëàä) G F#

 

Am Em C Em

Free--e is all you gotta be

Dream dreams no one else can see

Sometimes ya wanna run away

C D

But ya never know what might be comin? round your way

Dsus4 D

Ya ya ya

 

Am

On a day like today

C

The whole world could change

Em

The sun?s gonna shine

D

Shine thru the rain

Am C

On a day like today

G (3 ëàä) Ñ (3ëàä) G (3ëàä)

Ya never wanna see the sun go-o down

Ñ G (3 ëàä) Ñ (3ëàä) G (3ëàä) F#

Ya never wanna see the sun go-o down

 

 

Somewhere there?s a place for you

I know that you believe it too

Sometimes if you wanna get away

All ya gotta know is what we got is here to stay

All the way

 

On a day like today - the whole world could change

The sun?s gonna shine - shine thru the rain

On a day like today - no one complains

Free to be pure - free to be sane

On a day like today

Ya never wanna see the sun go down

Ya never wanna see the sun go down

 

Free is all we gotta be

Dream dreams no one else can see

But ya never know what might be comin? for you and me

Ya it?s gonna be

 

On a day like today...

 

Bryan Adams - On A Day Like Today

 

Intro:(Am - G - C & Csus - G - C - G - F#m)

 

Verse 1:

 

Em G C G

free- is all you've gotta be

Em G C G

dream dreams- no one else can see

Em G C G

sometimes- you wanna run away,

Em D

but you never know what might comin' round your way...

yeah yeah yeah

 

Chorus:

Am

cause on a day like today

C

the whole world could change

G

the sun's gonna shine

D

shine through the rain

Am C

on a day like today

C & Csus G C G

you never wanna see the sun go down

C & Csus G C G F#m

you never wanna see the sun go down

 

Verse 2:(same as before)

 

somewhere- there's a place for you

I know- that you beleive it too

sometimes- if you wanna get away,

all you gotta know is what we've got is here to stay-all the way

 

Chorus:(same as before)

 

on a day like today

the whole world can change

the sun's gonna shine

shine through the rain

on a day like today

no one complains

we're free to be pure

free to be saved

on a day like today

you never wanna see the sun go down

you never wanna see the sun go down

 

Solo:(Am - C - Em - G)

 

Bridge:

 

Am

free- is all you've gotta be

C

dream dreams- no one else can see,

Em

but you never know what might be comin' for you and me

D

yeah it's gotta be!

 

Chorus:(same chords as before)

 

on a day like today

the whole world could change

yeah the sun's gonna shine

shine through the rain

on a day like today

no one complains

we're free to be pure

free to be saved

on a day like today

you never wanna see the sun go down

you never wanna see the sun go down

 

Bryan Adams - One Night Love Affair

 

Intro:

B E x 4

 

Verse 1:

B E

You're the silent type

B E

And you caught my eye

B Ab #F E

but I never thought that I'd be touchin' you

B E

How was I to know

B E

I'd let my feelings go

B Ab F# E

And that I'd be yours before the night was through

 

 

 

Chorus:

D D/#C

One night love affair

B G A

trying to make like we don't care

D D/#C B G A

we where both reaching out for something

D D/C#

one night love affair

B G A

pretendin' it ain't there

D D/C# B G A

oh - and now we're left with nothing

 

 

Verse 2(same as verse 1):

 

 

When the morning breaks

we go our seperate ways

if the night was made for love it ain't for keeps

But I loose control

as I wath you go

all my senses say I'm in this much too deep

now you're outta' reach

 

 

Chorus x2

 

 

B E x 2

 

Solo:

B E B E B Ab #F E

E-|----------------|---------------|-------------------|-------------------|

B-|-------4^5--4---|------4^5--4---|------4^5--4-------|-------------------|

G-|----4-6------4--|--4-6-------4--|--4-6--------6-4-4-|--4-6-6--4-6-7-6-4-|

D-|----------------|---------------|-------------------|-6-----------------|

A-|----------------|---------------|-------------------|-------------------|

E-|----------------|---------------|-------------------|-------------------|

 

B E B E B Ab

E-|-------------|----------------------------------------|

B-|-12-14-16----|-12-14-16------14-14-12-12--14-12-12----|

G-|----------13-|----------13--------------13------------|

D-|-------------|----------------------------------------|

A-|-------------|----------------------------------------|

E-|-------------|----------------------------------------|

 

#F E

E-|------------------------------16-14--|

B-|-12--------12---------------17-------|

G-|---15-13-11--15-13-11----------------|

D-|---------------------14--------------|

A-|-------------------------------------|

E-|-------------------------------------|

 

Bryan Adams - Please Forgive Me

 

A E Fm# E D

 

E A A5 A

It still feels like our first night together

E Fm#

Feels like the first kiss and it's getting better, baby

E D

No one can better this

A E A

You're still holding on, you're still the one

Db Fm#

The first time our eyes met, same feeling I get

Db A

Only it feels much stronger, I wanna love you longer

E

You still turn the fire on

 

Bridge:

 

A Fm# A D

So if you're feeling lonely, don't

E A

You're the only one I ever want

Fm# A D

I only wanna make it go

E Fm# D

So if I love you a little more than I should...

 

Chorus:

 

A A5 A

Please forgive me, I know not what I do

Fm#

Please forgive me, I can't stop loving you

D D5 D

Don't deny me this pain I'm going through

A A5 A

Please forgive me, if I need you like I do

E

Please believe me, for what I say is true

D A E

Please forgive me, I can't stop loving you

 

A E Fm# E

 

A A5 A

Still feels like our best time together

E Fm#

Feels like the first touch, we're still getting closer, baby

E D

Can't get close enough

A E A

You're still holding on, you're still number one

Db Fm#

I remember the smell of your skin, I remember everything

Db

I remember all your moves, I remember you, yeah!

A E

I remember the nights, you know I still do

 

[BRIDGE]

 

[CHORUS]

 

Fm#-D Fm#-E Fm#-D Fm#-A D

 

E D-A D-E

One thing I'm sure of, is the way we made love

D-A D-Fm#

One thing I'm in pain now, is for us to stay strong

D

With every ride and every bus I'm prayin'

E

That's why I'm saying...

 

[CHORUS (one tone higher)]

 

F#

No, believe me, I don't know what I do

E B F# E

Please forgive me, I can't stop loving you

 

Bryan Adams - Please Forgive Me

 

Verse 1:

 

(No chord) A

It still feels like our first night together

E F#M

Feels like the first kiss, and it\'s getting better, baby

E

No one can better this

A E

You\'re still holding on, you\'re still the one

A E

The first time our eyes met, the same feeling I get

F#M E

Only feels much stronger, wanna love you longer

A E

You still turn the fire on

 

 

Pre-Chorus:

 

F#M A D

So if you\'re feeling lonely, don\'t

E A

You\'re the only one I ever want

F#M A D

I only wanna make it good

E F#M A D

So if I love you a little more than I should...

 

 

Chorus:

 

A E A

Please forgive me, I know not what I do

F#M E A

Please forgive me, I can\'t stop loving you

D A D

Don\'t deny me this pain I\'m going through

A E A

Please forgive me, if I need you like I do

E (F#M) (D)

Please believe me, for what I say is true

A E A

Please forgive me, I can\'t stop loving you

 

 

 

INTERLUDE:

 

Pick Chords: Esus4, E, F#M, E

 

 

 

Verse 2:

 

(No Chord) A

It Still feels like our best time together

E F#M

Feels like the first touch, we\'re still getting closer, baby

E

Can\'t get close enough

A E

You\'re still holding on, you\'re still number one

A C#7

I remember the smell of your skin, I remember everything

F#M E

I remember all your moves, I remember you, yeah!

A E

I remember the nights, you know I still do

 

 

[PRE-CHORUS]

 

 

[CHORUS]

 

 

Bridge:

 

E A

The One thing I\'m sure of, is the way we made love

E A

The One thing I depend on, is for us to stay strong

F#M D

With every ride and every bus I\'m prayin\'

E

That\'s why I\'m saying...

 

 

Chorus: (one tone higher)

 

B F#M B

Please forgive me, I know not what I do

G#M F#M G#M

Please forgive me, I can\'t stop loving you

E B E

Don\'t deny me this pain I\'m going through

B F#M B

Please forgive me, if I need you like I do

F#

Babe, believe me, for what I say is true

B F#M B

Please forgive me, I can\'t stop loving you

 

 

Outro:

 

 

F#

No, believe me, I don\'t know what I do

B F#M B

Please forgive me, cause I can\'t stop loving you

 

Bryan Adams - Summer Of 69

 

Intro: D5

 

Intro Verse:

 

D

I got my first real six-string

A

Bought it at the five-and-dime

D

Played it till my fingers bled

A

It was the summer of '69

 

Verse 1: (same as before)

 

Me and some guys from school

Had a band and we tried real hard

Jimmy quit and Jody got married

I shoulda known we'd never get far

 

Bridge:

Bm A

Oh when I look back now

D G A

That summer seemed to last forever

Bm A

And if I had the choice

D G A

Yeah, I'd always wanna be there

Bm A5 (N.C.) D A5

Those were the best days of my life.

 

Verse 2:(same as before)

 

Ain't no use in complainin'

When you got a job to do

Spent my evenin's down at the drive-in

And that's when I met you

 

Bridge 2:(same as before)

 

Standin' on your mama's porch

You told me that you'd wait forever

Oh and when you held my hand

I knew that it was now or never

Those were the best days of my life

 

chorus:

 

D A5

Back in the summer of '69

 

Middle 8:

 

F Bb

Man we were killin' time

C

We were young and restless

Bb

We needed to unwind

F Bb C

I guess nothin' can last forever - forever, no!

 

instrumantal: (D - A5) 2 times

 

Verse 3:(same as the others)

 

And now the times are changin'

Look at everything that's come and gone

Sometimes when I play that old six-string

I think about ya wonder what went wrong

 

Bridge 3:(same as the others)

 

Standin' on your mama's porch

You told me it would last forever

Oh the way you held my hand

I knew that it was now or never

Those were the best days of my life

 

repeat chorus til fade

 

Bryan Adams - Summer Of 69

 

Intro verse

 

e----------------|----------------------------------

b---3-3----------|3-3-------------------------------

g---2-2-22222222-|2-2-222222222--2-2----------------

d---000-00000000-|000-000000000--2-2-22222222-------(x4)

a----------------|---------------000-00000000-------

E----------------|----------------------------------

* ******** * ********* * ********

 

Chorus (strum pattern not included)

 

Bm A D G (LET THESE CHORDS RING)

e---2-----0---2--3---------2---0--------------------

b---3-----2---3--3---------3---2--------------------

g---4-----2---2--0--(x2)---4---2--------------------

d---4-----2---0--0---------4---2--------------------

a---2-----0------2---------2---0--------------------

E----------------3----------------------------------

 

COOL RIFF afer "those were the best days of my life"

 

e--0-2-3-2-0-2--------------------------------------(play this after every chorus)

b---3-3-3-3-----0-2-3-2-0-2-------------------------

g----------------2-2-2-2----------------------------

d---------------------------------------------------

a---------------------------------------------------

E---------------------------------------------------

 

Bridge(strum pattern not shown)

"we were killing time"

 

F Bb C Bb F Bb C(hold twice as long)

e--1---1--3--1--1--1--3------------------------------

b--1---3--5--3--1--3--5------------------------------

g--2---3--5--3--2--3--5------------------------------

d--3---3--5--3--3--3--5------------------------------

a--3---1--3--1--3--1--3------------------------------

E--1------------1------------------------------------

 

cool little solo deal.

 

e--12-12--14-14--15-15--14-14--12-14-----------------------------------

b------------------------------------12-12--14-14--15-15--14-14--12-14-(x5)

g----------------------------------------------------------------------

d----------------------------------------------------------------------

a----------------------------------------------------------------------

E----------------------------------------------------------------------

 

Outro(played over chords)(fades out as song ends)

 

e----------------14~~~~-----------------------------12/14-12~-14b15r14~-14-12h14p12

b------------------------------------------12-14-15~-------------------------------

g-7~--9/11-9-11b12r11~---14-14h16p14h16p14-----------------------------------------

d----------------------------------------------------------------------------------

a----------------------------------------------------------------------------------

E----------------------------------------------------------------------------------

 

 

order

 

intro

verse

chrous

COOL RIFF

verse

Chorus

COOL RIFF

Bridge

Solo deal

Chorus

Outro

 

Bryan Adams - Take Me Back

 

Intro: Am C F Am

Am C F Am (repeat)

Dm

 

 

Verse 1:

Am Dm

I should have seen it coming baby

Am

I should have seen the signs

Dm Am

Didn't really think that she needs me

C G

I must have been blind

Dm Am

She didn't give me a warning

Dm Am

Said I shouldn't treat you wrong

Dm Am

But when I woke up this morning

C G

She was gone, gone, gone

 

 

Chorus:

 

Am

She said take me back won't you

C F

Take me back won't you

Am

I changed my ways

 

Said take me back won't you

C F

Take me back won't you

Am Dm

I'm not the same

 

 

 

Verse 2:(same as verse 1)

 

She didn't tell me about it

Am I supposed to read your mind?

You made me get up and shout it

It's a crime, crime, crime

I should have seen it coming baby

I should have seen the signs

Didn't really think that she needs me

I must have been blind

 

 

Chorus (same as before)

 

 

Ending:

 

F Am C F C F

I'm not the same, yeah

G C F C F

Ah won't you take me back?

G

Ah won't you take me back?

 

 

Am C F Am

 

 

(repeat and fade)

 

Bryan Adams - The Best Of Me

 

F#m A D A

Sometimes words are hard to find

F#m E D A

I'm looking for that perfect line

Dm A E

To let you know you're always on my mind

 

Pre-Chorus1:

 

A E F#m

Ya this is love - n' I've learned enough to know

D(Dm) A

I'm never lettin' go

F#m E

No, no, no - won't let go

 

Chorus:

 

A F#m

When you want it - when you need it

D E

You'll always have the best of me

A F#m

I can't help it - believe it

D E

You'll always get the best of me

 

Verse2:

 

I may not always know what's right

But I know I want you here tonight

Gonna make this moment last for all your life

 

Pre-Chorus2:

 

oh ya this is love - n' it really means so much

I can tell from every touch

No, no, no - can't get enough

 

Chorus:

 

When you want it - when you need it

You'll always have the best of me

I can't help it - believe it

You'll always get the best of me

 

Pre-Chorus1:

 

Ya this is love

And I've learned enough to know

I'm never letting go

No, no, no - won't let go

 

Chorus:

 

When you want it - when you need it

You'll always have the best of me ---- 2 times.

I can't help it - believe it

You'll always have the best of me - yeah!

 

You've got the best of me, baby

 

 

...

 
 
 
     
 
 
| | | | | | | | | |
 

.net     , ,

 
24.12.2011
06.03.2004
 
 
    Internet Map Rambler's Top100

. . . .

, , ZaG

zagstudio