-
 
Guitar Pro
 
 
     
 
 

, , ,



Bon Jovi - I'd Die For You

 

Written by: Jon Bon Jovi, Richie Sambora & Desmond ChildIntro

=====

E||-------------------|--------------------|-------------------|

B||-------------------|--------------------|-------------------|

G||*------------------|--------------------|-------------------|

D||*--2-------2-------|--------------------|-------------------|

A||---0-------0----3--|----------------x-x-|--5----------------|

E||----------------1--|----------------x-x-|--3----------------|

Riff 1

E|--------------------||-------------------|-------------------|

B|--------------------||-------------------|-------------------|

G|--14----14----12---*||-------------------|-------------------|

D|--14----14----12---*||-------------------|-------------------|

A|--------------------||--0----2----3------|-------0---------0-|

E|--------------------||-----------------1-|--3---------3------|

 

E|---------------------|----------------------|----------------|

B|---------------------|----------------------|----------------|

G|---------------------|----------------------|----------------|

D|---------------------|----------------------|----------------|

A|-2--------------2----|--0----2----3---------|-------0----5---|

E|------0----3---------|-----------------1----|--3---------3---|

Verse: ======

If you could see inside my heart

E|-----------------|------------------|

B|-----------------|------------------|

G|-14----14----12--|------------------|

D|-14----14----12--|------------------|

A|-----------------|--0--0--0--0------|

E|-----------------|------------------|then you would understand

Id never mean to hurt you

Baby Im not that kind of manI might not say

D|----------------------------|--------------------------------|

A|----------------------------|------------7-------------------|

E|----------4--7--------------|---5----------------------------|

 

Im sorry Yeah I might talk tough sometimes And

E|-------------------|-------------------|---------------------|

B|-------------------|-------------------|---------------------|

G|-------------------|-------------------|---------------------|

D|-------------------|-------------------|---------------------|

A|-------------------|--3----------------|------------x-x-3----|

E|-------------------|--1----------------|------------x-x-1----|

I might forget the little things Or keep you hanging

E|-------------------|-------------------|---------------------|

B|-------------------|-------------------|---------------------|

G|-------------------|-------------------|---------------------|

D|-----------5-------|-------------------|---------------------|

A|-----2--5----------|-------------------|--2------------------|

E|--3----------------|-------------------|--0------------------|

Bridge ======

on the line In a world that dont know Romeo and Juliet

E|------------------|--------------------|---------------------|

B|------------------|--------------------|---------------------|

G|------------------|--------------------|---------------------|

D|------------------|--------------------|---------------------|

A|------------------|--3------------3----|--7-------5----------|

E|------------------|--1------------1----|--5----3--3----------|

Boy meets girl and promises we cant forget We are cast from

E|------------------|---------------------|--------------------|

B|------------------|---------------------|--------------------|

G|------------------|---------------------|--------------------|

D|-------------5----|--5------------------|--------------------|

A|-3-----------3----|--3---------5--------|--3------------3----|

E|-1----------------|---------3--3--------|--1------------1----|

Edens gate with no regrets Into the fire we cry

E|---------------------|-------------------|-------------------|

B|---------------------|-------------------|-------------------|

G|---------------------|-------------------|-------------------|

D|---------------------|-------------------|-------------------|

A|--7---------5--------|--3----------------|--2----------------|

E|--5------3--3--------|--1----------------|--0----------------|

Chorus - use Riff 1===================Verse 2=======

I might not be a savior And Ill

E|-------------------------|-----------------------------------|

B|-------------------------|-----------------------------------|

G|-------------------------|-----------------------------------|

D|------------7------------|-----------------------------------|

A|------4--7---------------|-----------------------------------|

E|---5---------------------|-----------------------------------|

never be a king I might not send you roses

E|-------------------|------------------|----------------------|

B|-------------------|------------------|----------------------|

G|-------------------|------------------|----------------------|

D|-------------------|------------------|-----------5----------|

A|--3----------------|------------------|-----2--5-------------|

E|--1----------------|------------------|--3-------------------|

Or buy your diamond rings -harmonics----) But if

E|----------------|-------------------|--------------5---------|

B|----------------|-------------------|--7---7-----5-----------|

G|----------------|-------------------|----7---7-5-------------|

D|----------------|-------------------|------------------------|

A|-------x--------|--2----------------|------------------x-x-x-|

E|-------x--------|--0----------------|------------------x-x-x-|

I could see inside you Maybe Id know just who we are

E|--------------------|-------------------|--------------------|

B|--------------------|-------------------|--------------------|

G|--------------------|-------------------|--------------------|

D|-2------------------|--2----------------|--------------------|

A|-0----0--0--0----0--|--0--0--0----0--0--|--3-----------------|

E|--------------------|-------------------|--1----1--1---1--1--|

cause our love is like a hunger Without it

E|--------------------|----------------------|-----------------|

B|--------------------|----------------------|-----------------|

G|--------------------|----------------------|-----------------|

D|--------------------|----------------------|-----------------|

A|-3------------------|--5-------------------|--5--------------|

E|-1--1--1----1----1--|--3----3--3---3----3--|--3--3--3--3--3--|

we will starve

E|--------------------------|------------------------|

B|--------------------------|------------------------|

G|--------------------------|------------------------|to bridge

D|--------------------------|--0-dive----------------|

A|--2-----------------------|-(2)--------------------|

E|--0-----------------------|--(0)-------------------|

 

Solo====

 

D|--------------------------|----------------------------------|

A|-----------4----5---------|---7------------------------------|

E|--------------------------|----------------------------------|

 

E|----------------------------|--------------------------------|

B|----------------------------|--------------------------------|

G|----------------4----5------|----------------4----5----------|

D|--7----7-7-7----------------|--5----5-5-5--------------------|

A|----------------------------|--------------------------------|

E|----------------------------|--------------------------------|

 

E|-----------------------------|-----------5----7----8---------|

B|-----------------------------|-----------5-------------------|

G|----7----5~---4--------------|-------------------------------|

D|-------------------5---------|-------------------------------|

A|------------------------5----|--7----------------------------|

E|-----------------------------|-------------------------------|

 

E|-------5----7--8-|------8-------10----8-------10-------12----|

B|-6-----5---------|-8/10---10/12----12---10/12----12/13----13/|

G|-----------------|-------------------------------------------|

D|-----------------|-------------------------------------------|

A|-----------------|-------------------------------------------|

E|-----------------|-------------------------------------------|

 

E|-----10-----8-----7-7--------|-------------------------------|

B|--12----12----10----8--------|-------------------------------|

G|-----------------------------|--------5--------5----------5--|

D|-----------------------------|--7-5-7---7--5-7---7--7-5-7----|

A|-----------------------------|-------------------------------|

E|-----------------------------|-------------------------------|

 

E|------------------|------------------------------------------|

B|------------------|------------------------------------------|

G|-------5----------|-------17---------------17-------------17-|

D|-7-5-7---7--19-19-|-17-19----19---19-17-19----19-19-17-19----|

A|------------------|------------------------------------------|

E|------------------|------------------------------------------|

 

E|--------------------------------------17----17---------------|

B|----------------------17--17-20-17-17----17------------------|

G|--------------17--19-----------------------------------------|

D|--19--17--19-------------------------------------------------|

A|-------------------------------------------------------------|

E|-------------------------------------------------------------|

 

E|-20b-20-20-17-------17-------|------17-----------------------|

B|--------------20-17----20-17-|--20b----20-17-----------------|

G|-----------------------------|---------------19-17----19--17-|

D|-----------------------------|---------------------19--------|

A|-----------------------------|-------------------------------|

E|-----------------------------|-------------------------------|

 

E|------------------------------|-----------------5--/12-------|

B|------------3--6--8--8~-------|-----------5--8---------------|

G|------3--5--------------------|-----5--7---------------------|

D|---5--------------------------|--7---------------------------|

A|------------------------------|------------------------------|

E|------------------------------|------------------------------|

Id die for you Id cry for you Id do anything Id

E|----------------------|-------------------|------------------|

B|----------------------|-------------------|------------------|

G|----------------------|-------------------|------------------|

D|--2--2--2--2----------|-------------------|------------------|

A|--0--0--0--0----------|--3----------------|--5--5--5--5------|

E|----------------------|--1----------------|--3--3--3--3------|

lie for you You know its true Baby Id die for

E|------------------|----------------------|-------------------|

B|------------------|----------------------|-------------------|

G|------------------|----------------------|-------------------|

D|------------------|--2--2--2--2----------|--3----------------|

A|-2----------------|--0--0--0--0----------|--3----------------|

E|-0----------------|----------------------|--1----------------|

you -harmonics--)

 

E|--------------------------|-----------5----------|

B|--------------------------|--7------5------------|

G|--------------------------|-------5--------------|to chorus

D|--------------------------|----------------------|

A|--5--5--5--5--5--5--5--5--|----------------------|

E|--3--3--3--3--3--3--3--3--|----------------------|Ending====

 

E|-------------------|------------------------|---------------||

B|-------------------|------------------------|---------------||

G|-------------------|------------------------|--2------------||

D|--7-------9--------|----10--------12--------|--2------------||

A|--5-------7--------|----8---------10--------|--0------------||

E|-------------------|------------------------|---------------||

 

 

...

 
 
 
     
 
 
| | | | | | | | | |
 

.net     , ,

 
24.12.2011
06.03.2004
 
 
    Internet Map Rambler's Top100

. . . .

, , ZaG

zagstudio