Аккорды для всех - сайт народных аккордов
 
Аккорды и тексты песен
Guitar Pro табулатуры
Уроки игры на гитаре
Таблица аккордов
Бесплатные программы для музыкантов
Фотографии музыкантов
Видеоклипы
Каталог ссылок
Обратная связь
На главную страницу
 
 
     
 
 

Аккорды, песни, текст, табулатура



Би-2 - ВОЛКИ

===

 

Hm F#/B G F#

 

   Hm                                  F#/B

4|-4-4-------------|-4-4-------------|-4-4-------------|-4-4-------------|

5|-------5---------|-------5---------|-------4---------|-------4---------|

Волки уходят в небеса,        горят холодные глаза,

   G                                   F#

4|-----------------|-----------------|-------------4---|------------(4)--|

5|-5-5---2---------|-5-5---2---------|-4-4---1---------|-4-4---1---------|

Приказа верить в чудеса       не поступало.

И каждый день - другая цель: то стены гор, то горы стен,

И ждет отчаянных гостей чужая стая.

 

Припев:

   Hm                                  C#

1|-10--------------|-----------------|---9-------------|-----------------|

2|7----------------|---------7-----6~|~6---------------|---------6-----5~|

Спиной                    к ветру, и все же

   Em                                  F#

1|---9-------------|-----------------|-------9---------|-----------------|

2|~5---------------|---------7-----8~|~8-7-------------|---------------7-|

Вырваться может              чья-то душа.

Спасет, но не поможет,

Чувствую кожей - пропащая.

 

   | | | | | | | |   | | | | | | | |   | | | | | | | |   | | | | | | | |

1|-----------------|-----------------|-9---------------|-----------------|

2|-12--------------|-----------------|-11--------------|-----------------|

3|11-----11--------|-------12----1111|-11----11--------|-------12----1111|

4|---------------9-|-----------------|---------------9-|-----------------|

Не помнят слов, не видят снов, переросли своих отцов,

   | | | | | | | |   | | | | | | | |   | | | | | | | |   | | | | | | | |

1|-10--------------|-----------------|-12--------------|-----------------|

2|-12--------------|-----------------|-11--------------|-----------------|

3|-12--------------|-----------------|-----------------|-------12----1111|

4|-------12--------|-------14----12--|-------11--------|-----------------|

5|---------------10|-----------------|---------------9-|-----------------|

И кажется - рука бойцов      колоть устала.

Позор и слава в их крови, хватает смерти и любви,

Но сколько волка не корми - ему все мало.

 

Припев.

 

Соло:

   Hm                F#/B              G                 F#

1|-7---7---7---7-10|-9---9---9---9---|-----------------|-----------------|

2|---7---7---7-----|---7---7---7---7-|-8---8---8---8---|-7---7---7---7-5-|

3|-----------------|-----------------|---7---7---7---7-|---6---6---6-----|х4

                                     /1.

3|-0---------------|-0---------------|-----------------|-----------------|

4|--4--------------|--4--------------|-5-------4-5-----|-----4*----------|

5|---2-------------|---1-------------|-------------5-4-|-1---------------|

6|-----------------|-----------------|-----------------|---2-------------|

 

* - /3.

 

 /2.                                    /4.

2|(8)--------------|-----------------| 2|--23---------5---|-----------------|

3|-----------------|-----------------| 3|-0---------------|-3---------------|

4|-5-----------5---|-5-4-------------| 4|0----------------|-----------------|

 

Припев.

Волки уходят... }x4 }

М-м-м...            }x2 (fadeout)

 

 

 
 
 
     
 
 
 

инженеров.netДомашняя страницаНезависимый морской сайтПортал для гитаристовПриколы, юмор, анекдоты

 
обновлен 24.12.2011
в сети с 06.03.2004
 
 
Неофициальный морской сайт Домашняя страница Яндекс цитирования Internet Map Rambler's Top100
Учет посещений на народе

все тексты песен являются собственностью их автора. песени взяты из открытых источников. на сайте размещены с целью ознакомления. при использовании материалов сайта ссылка на сайт обязательна.

по всем вопросам стучитесь в асю или пишите на электропочту

идея, дизайн, редактирование Леха ZaG Загрядский

zagstudio