-
 
Guitar Pro
 
 
     
 
 

, , ,



-2

 

Clean Guitar

1|--6------5-------------------6------5----------

2|-------------------6-4--4-6--------------------

3|----7-7---7-7--7---------------8-8--8-8--8-7-

4|------------------------------------------------

5|------------------------------------------------

6|------------------------------------------------

 

Dist.Guitar

G

D#

C

,

D

 

Chorus:

G D#

1|-------------------------------------

2|-------------------------------------

3|-----5-3-----------------------------

4|---5-----5------------------8-8--8-8

5|-5---------5--5-6-5--8-6--6-6--6-6

6|--------------------------------------

G F

1|-----------------------------6-6-5--6-6-5

2|-------------------------------------------

3|-----5-3----------------------------------

4|---5-----5--------------------------------

5|-5---------5--5-6-5--8-6----------------

6|------------------------------------------

 

 

 

 

Solo ( )

1|-----6----5--6-8-10-----6-----5--6-8-6------6----5--6-8-10---

2|-4-6--4-6---4-6--8--4-6--4-6----4-6-6--4-6--4-6---4-6--8-10

3|------------------------------------------------

4|------------------------------------------------

5|------------------------------------------------

6|------------------------------------------------

1|--6------5-------------------6------5----------

2|-------------------6-4--4-6--------------------

3|----7-7---7-7--7---------------8-8--8-8--8-7/19

4|------------------------------------------------

5|------------------------------------------------

6|------------------------------------------------

 

Chorus

 

Solo

1|-------------------------------------------

2|-------------------------------------------

3|-------------------------------------------

4|------------------10--------------10------

5|----12-13-12-13------12-13-12-13------

6|-10-----------------10--------------------

1|-------------------------------------------

2--------------------------------------------

3|------------------------------------------- x4

4-----------10----------15-13-12-10-12-------

5|---12-13----13-12---------------------12---

6-10-----------------------------------------

 

 

...

 
 
 
     
 
 
| | | | | | | | | |
 

.net     , ,

 
24.12.2011
06.03.2004
 
 
    Internet Map Rambler's Top100

. . . .

, , ZaG

zagstudio