Аккорды для всех - сайт народных аккордов
 
Аккорды и тексты песен
Guitar Pro табулатуры
Уроки игры на гитаре
Таблица аккордов
Бесплатные программы для музыкантов
Фотографии музыкантов
Видеоклипы
Каталог ссылок
Обратная связь
На главную страницу
 
 
     
 
 

Аккорды, песни, текст, табулатура



Би-2 - КУКУШКА (КИНОпробы)

 

Интро:

   Hm                D                 A9                 F#m/A

1|---------2-------|-2-----0-2---5---|-----------------|-----------------|

2|-------3-----3---|-----------------|-5-----3-2-------|---------3-2-----|

3|-4---------------|-----------------|-----------------|-------------4-2-|x2

 Hm

Песен еще ненаписанных, сколько?

          A   Em    Hm

Скажи, кукушка, пропой.

В городе мне жить или на выселках,

Камнем лежать или гореть звездой, звездой?

Припев:

A        G                Hm

Солнце мое, взгляни на меня.

4|-----4---5-4-2-|

4|-2-2---2-------|x2

Моя ладонь превратилась в кулак.

И если есть порох - дай огня.

Вот так...

Проигрыш:

Hm D F F# }

Hm D C# B }x2

О-а!..

Кто пойдет по следу одинокому?

Сильные да смелые головы сложили в поле в бою.

Мало кто остался в светлой памяти,

В трезвом уме да с твердой рукой в строю, в строю.

Припев.

<2: Э!>

Соло:

Интро х0.5.

1|------2---|-2--0-2--5/7-|-7--5-5--/12(fl.)-|

2|----3---3-|-------------|------------------|

3|-4--------|-------------|------------------|

   Hm             D             A             G A

2|--------------|-------------|-------------|----3/5\\|

3|--------------|-------------|-2-----------|-6------|

4|----0-2/3\\2/3-|-3---2/3\\2/3-|-----4/5\\4/5-|--------|

5|-2------------|-------------|-------------|--------|

1|-------|-------|-------|-------|

2|-5--3--|-2-----|-------|-2--3--|

3|-------|----4--|-2--4--|-------|

Где же ты теперь, воля вольная?

С кем же ты сейчас ласковый рассвет встречаешь? Ответь.

Хорошо с тобой, да плохо без тебя.

Голову да плечи терпеливые - под плеть, под плеть.

Припев x2 (cutted).

1. <2: Э!>

2. <1: Hm D F F#>

   <2: Э! }x2>

   <4: N.C.>

 

 

 
 
 
     
 
 
 

инженеров.netДомашняя страницаНезависимый морской сайтПортал для гитаристовПриколы, юмор, анекдоты

 
обновлен 24.12.2011
в сети с 06.03.2004
 
 
Неофициальный морской сайт Домашняя страница Яндекс цитирования Internet Map Rambler's Top100
Учет посещений на народе

все тексты песен являются собственностью их автора. песени взяты из открытых источников. на сайте размещены с целью ознакомления. при использовании материалов сайта ссылка на сайт обязательна.

по всем вопросам стучитесь в асю или пишите на электропочту

идея, дизайн, редактирование Леха ZaG Загрядский

zagstudio