Аккорды для всех - сайт народных аккордов
 
Аккорды и тексты песен
Guitar Pro табулатуры
Уроки игры на гитаре
Таблица аккордов
Бесплатные программы для музыкантов
Фотографии музыкантов
Видеоклипы
Каталог ссылок
Обратная связь
На главную страницу
 
 
     
 
 

Аккорды, песни, текст, табулатура



Би-2 - И КОРАБЛЬ ПЛЫВЕТ

 

Интро:

   Hm     F#              F#

2|----3-5------------|  |----3-5-7-| }

3|-4----------2--2-2-|  |-3--------| }

4|--------4--4-------|x3|----------| }x2

   Em     Esus2/D

Сколько звезд на погоны добыли в боях

На пустых полигонах, в неведомых снах!

Дайте небо под крылья подстреленных птиц,

Журавлиному клину - скорую помощь.

Припев:

      G              A

Отпустите синицу на верную смерть -

       F#/B     F#      Hm

Пусть ее приласкает свобода.

И корабль плывет, и сквозь колотый лед

       Gm/B     Gm     F#

Я смотрю в эту черную воду!..

Интро.

Никого не зову, не жалею, не плачу.

У вас на()яву, у меня - на удачу.

Луна, как стекло, - не любила, не грела,

Никого не ждала, ничего не хотела.

Припев.

Соло:

   Hm        F#           Hm    F#    Em     Esus2/D F#

1|-----10-12-14---2-3-2-------------2-3--0-3-7----7--9--14-|

2|-12-------------------3-----------------------8----------|

3|------------------------4-4-4-3--------------------------|

4|--------------------------------4------------------------|

   Hm        F#       Hm      F#           Em        Esus2/D    F#

1|------------------3-2---------------------------5--7----7--10-9---14h15p14h15p14h15p14-|

2|------2-3--5--3-5-----------------0/(7)--5--7-8-------8--------------------------------|

3|----4-------------------------0-2------------------------------------------------------|

4|-4------------------------2-4----------------------------------------------------------|

5|------------------------2--------------------------------------------------------------|

Бас:

  (Hm)    (F#)

   | | | | | | | |

2|-------------2200|

3|-2-----2---22----|

4|---------2-------|

   Hm      F#        Hm      F#        Hm      F#        Hm      F#

   | | | | | | | |   | | | | | | | |   | | | | | | | |   | | | | | | | |

1|-5------7--------|------1097-----10|97-5-5-------757-|-7---------5-----|

2|-----------------|-----------------|-----------------|------------8753/|

Outro:

   Hm      F#        Hm      F#        Em      Esus2/D   F#

   | | | | | | | |   | | | | | | | |   | | | | | | | |   | | | | | | | |

2|-7---------------|-------5-5-2-----|-8---------------|-----------------|

3|-----------------|-------------3---|---------4-------|-6---------------|

4|-----------------|---------------4-|-----------------|-----------------|х4

С чего начинается Родина?..

 

 

 
 
 
     
 
 
 

инженеров.netДомашняя страницаНезависимый морской сайтПортал для гитаристовПриколы, юмор, анекдоты

 
обновлен 24.12.2011
в сети с 06.03.2004
 
 
Неофициальный морской сайт Домашняя страница Яндекс цитирования Internet Map Rambler's Top100
Учет посещений на народе

все тексты песен являются собственностью их автора. песени взяты из открытых источников. на сайте размещены с целью ознакомления. при использовании материалов сайта ссылка на сайт обязательна.

по всем вопросам стучитесь в асю или пишите на электропочту

идея, дизайн, редактирование Леха ZaG Загрядский

zagstudio