Аккорды для всех - сайт народных аккордов
 
Аккорды и тексты песен
Guitar Pro табулатуры
Уроки игры на гитаре
Таблица аккордов
Бесплатные программы для музыкантов
Фотографии музыкантов
Видеоклипы
Каталог ссылок
Обратная связь
На главную страницу
 
 
     
 
 

Аккорды, песни, текст, табулатура



Би-2 - Последний герой


// Обзываем следующие риффы так:

riff01
e|-----5-5--------5-5----------5-5-------5-----------|
B|-3-3-------4-4--------5-5------------3----3--------|
G|---------------------------------------------------|
D|---------------------------------------------------|
A|---------------------------------------------------|
E|---------------------------------------------------|

riff02
e|--------13-13---------13-13---------13-13-----13----------|
B|-11-11---------12-12---------13-13---------14-----14------|
G|----------------------------------------------------------|
D|----------------------------------------------------------|
A|----------------------------------------------------------|
E|----------------------------------------------------------|

riff03
e|-----2-2-----2-2------2-2-----2----------|
B|-0-0-----1-1-----2-2--------0---0--------|
G|-----------------------------------------|
D|-----------------------------------------|
A|-----------------------------------------|
E|-----------------------------------------|

riff04
e|-----10-10------10-10--------10-10-----10----------|
B|-8-8-------9-9--------10-10----------8----0--------|
G|---------------------------------------------------|
D|---------------------------------------------------|
A|---------------------------------------------------|
E|---------------------------------------------------|

Intro: riff01

riff01
Я больше не играю со своей душой:
riff02
Какая есть, кому-нибудь сгодится.
riff03
Намедни, золото и твой герой -
riff04
Последний кем бы ты могла гордиться

Припев:
Gm(3)
Остаться в живых!
Отчайный псих?
Fm(1)
Ни свой, ни чужой -
Gm(3)
Последний герой. :)

Проигрыш: Gm(3)

riff01 + Am(5)
Всё то немногое - на чётное не ставь,
riff02 + Fm(8)
Когда любовь и слёзы не дороже хлеба.
riff03 + Gm(3)
И, кажется, что до земли добраться вплавь
riff04 + D#m(6)
Возможно тем кто по воде уходит в небо

Припев,

Проигрыш: Gm(3)

Припев...

Проигрыш: Gm(3)

 

 

 
 
 
     
 
 
 

инженеров.netДомашняя страницаНезависимый морской сайтПортал для гитаристовПриколы, юмор, анекдоты

 
обновлен 24.12.2011
в сети с 06.03.2004
 
 
Неофициальный морской сайт Домашняя страница Яндекс цитирования Internet Map Rambler's Top100
Учет посещений на народе

все тексты песен являются собственностью их автора. песени взяты из открытых источников. на сайте размещены с целью ознакомления. при использовании материалов сайта ссылка на сайт обязательна.

по всем вопросам стучитесь в асю или пишите на электропочту

идея, дизайн, редактирование Леха ZaG Загрядский

zagstudio