-
 
Guitar Pro
 
 
     
 
 

, , ,



The Beatles - Yesterday by John Lennon & Paul McCarteny

 

F A7 Dm

e|-----------------|-------------------0----1--|-0---------------|

b|-----------------|-----0---2---3-------------|----3--3---------|

g|--0--------------|--2------------------------|-----------------|

d|------3---3------|---------------------------|-----------------|

a|-----------------|---------------------------|-----------------|

E|-----------------|---------------------------|-----------------|

Yes-ter-day, all my trou-bles seemed so far a-way

 

Bb C F Dm G

e|-------------------------------|-------------------|----------------|

b|--3--3---1---------------------|-------------------|----------------|

g|--------------3-----2-------0--|--3---2---2-----0--|----2---0-------|

d|-------------------------------|-------------------|-3----------0---|

a|-------------------------------|-------------------|----------------|

E|-------------------------------|-------------------|----------------|

Now it looks as though they're here to stay, Oh I be-lieve in

 

Bb F A7 Dm

e|-------------|---------------|-------------------0--1-|--0---------|

b|-------------|---------------|------0---2---3---------|------3--3--|

g|------2---2--|--0------------|--2---------------------|------------|

d|--3----------|------3--3-----|------------------------|------------|

a|-------------|---------------|------------------------|------------|

E|-------------|---------------|------------------------|------------|

yes-ter-day. Sud-den-ly, I'm not half the man I used to be.

 

Bb C7 F Dm G

e|----------------------------|----------------|------------------|

b|---3-----3--1---------------|----------------|------------------|

g|----------------3---2---0---|-3--2--2-----0--|------2----0------|

d|----------------------------|----------------|--3-----------0---|

a|----------------------------|----------------|------------------|

E|----------------------------|----------------|------------------|

There's a shad-ow hang-ing o-ver me, Oh yes-ter-day came

 

Bb F A7 Dm Bb C7

e|-------------|------------|-----0--1--0-------|---0-----------------|

b|-------------|------------|--3------------3---|--------3----1----3--|

g|------2---2--|---2---2----|-------------------|---------------------|

d|--3----------|------------|-------------------|---------------------|

a|-------------|------------|-------------------|---------------------|

E|-------------|------------|-------------------|---------------------|

sud-den-ly. Why she had to go I don't know, she would-n't

 

F A7 Dm Bb C

e|--------|---------|--------0-----1----0----|--0-------------0--|

b|--------|---------|--3-------------------3-|-------3---1-------|

g|--2-----|-2---2---|------------------------|-------------------|

d|--------|---------|------------------------|-------------------|

a|--------|---------|------------------------|-------------------|

E|--------|---------|------------------------|-------------------|

say. I said some-thing wrong now I long for yes-ter-

 

F A7 Dm

e|-1------------|--------------|-------------------0--1-|---0-----------|

b|-----1--------|--------------|-------0---2---3--------|-------3---3---|

g|--------3--2--|--0-----------|--2---------------------|---------------|

d|--------------|------3---3---|------------------------|---------------|

a|--------------|--------------|------------------------|---------------|

E|--------------|--------------|------------------------|---------------|

day.________ Yes-ter-day, love was such an eas-y game to play.

 

Bb C7 F Dm G Bb F

e|-----------------------|------------------|---------------|--------------|

b|--3--3--1--------------|------------------|---------------|--------------|

g|------------3---2---0--|--3---2--2-----0--|---2----0------|------2---2---|

d|-----------------------|------------------|-3----------0--|--3-----------|

a|-----------------------|------------------|---------------|--------------|

E|-----------------------|------------------|---------------|--------------|

Now I need a place to hide a-way, Oh I be-lieve in yes-ter-day.

 

 

 

Now repeat from "Why she had to go..." and then play this:

 

Dm G Bb F

e|-------------|------------|

b|-------------|------------|

g|----2--0-----|-----2--2---|

d|-3--------0--|--3---------|

a|-------------|------------|

E|-------------|------------|

Mm mm mm mm mm mm mm

 

 

...

 
 
 
     
 
 
| | | | | | | | | |
 

.net     , ,

 
24.12.2011
06.03.2004
 
 
    Internet Map Rambler's Top100

. . . .

, , ZaG

zagstudio