-
 
Guitar Pro
 
 
     
 
 

, , ,



The Beatles Here Comes The Sun

INTRO

 

D Dsus2 D Dsus2 G G6 G

E|-2-----0--2-------|------2--0-------------|--------0-------0-|

B|-3--3-----------3-|----------------3----0-|--------0---3---0-|

G|-2--------------2-|----------------2----0-|---3----0---0---0-|

D|-0-----------0----|-0--0--------0-------0-|---0----0---0---0-|

A|------------------|---------------------2-|------2-2-2-2-2---|

E|------------------|------------------0--3-|-3------3---3-----|

 

A7 A7sus2 A7 A7sus4 A D Dsus2 D

E|------------------0--------|------2-----0--2------|

B|-2--0----2--3-----------2--|------3--3---------3--|

G|-0-------0-----0--------2--|------2---------------|

D|-2-------2-----2-----2--2--|--0---0---------------|

A|-0-------0-----0-----------|----------------------|

E|---------------------------|----------------------|

 

Dsus2 G Gmaj7 G6 G/B A7

E|-------2--0--------------|-----2-----0--------------|

B|----------------3-----0--|-----0------------3-----2-|

G|----------------------0--|-----0------------0-----0-| (rest)

D|-0--0--------0--------0--|-----0------------0-----2-|

A|----------------------2--|-----3---------2--2--0--0-|

E|-------------------0--3--|--3--3--3-----------------|

 

CHORUS

 

D Dsus2 D Dsus2 D G Gmaj7 G6 Gmaj7 E7

Here comes the sun doo doo doo doo Here comes the sun

E|--2--0-----2-----|----2------0--2------|----2--0-----2-------|

B|---------------3-|-------3----------0--|-----------------3---|

G|-----------------|---------------------|---------------------|

D|-----------------|---------------------|---------------------|

A|-----------------|---------------------|---------------------|

E|-----------------|---------------------|---------------------|

 

D Dsus2 D

and I___ say_ "It`s al- right."

E|--------------------|----2-----0---------------|

B|--3--3----3-----3---|----------------3---------|

G|--------------------|----------------------2---|

D|--------------------|--0----0-----0-----0------|

A|--------------------|--------------------------|

E|--------------------|--------------------------|

 

E|-------0--------0--------|--0--------0-------------||

B|----3--------3--------3--|--------3-----32---------||

G|-4--------2--------0-----|-----2-------------42----||

D|-------------------------|-------------------------||

A|-------------------------|-------------------------||

E|-------------------------|-------------------------||

 

VERSE 1 and 2

 

D Dsus2 D D Dsus2 G G6 G

1. Little darling, it`s been a long cold lone--ly wint-

2. Little darling, the smiles re - turning to their face-

E|--2------0--2-----|-------2--0----------|-------0------------|

B|-----3----------3-|-(3)----------3----0-|----3-------3---0---|

G|------------------|---------------------|--------------------|

D|------------------|---------------------|--------------------|

A|------------------|---------------------|--------------------|

E|------------------|---------------------|--------------------|

 

A7 A7sus2 A7 A7sus4 A7 D Dsus2 D Dsus2 G

--- ter;

--- ces; / Lit-tle darling, it seems like years

E|-----------------0-----|---2--2--0--2------|-----2-0---------|

B|-2---0----2--3-------2-|----------------3--|-(3)------3----0-|

G|-----------------------|-------------------|-----------------|

D|-----------------------|-------------------|-----------------|

A|-----------------------|-------------------|-----------------|

E|-----------------------|-------------------|-----------------|

 

G6 G A7 A7sus4

since its been clear

E|-2--------0-------------|-----------------------||

B|---------------3-----2--|---2--2---3--3--3--3---||

G|------------------------|-----------------------||

D|------------------------|-----------------------||

A|------------------------|-----------------------||

E|------------------------|-----------------------||

 

REPEAT CHORUS

 

D Dsus2 D Dsus2 D G Gmaj7 G6 Gmaj7 E7

Here comes the sun doo doo doo doo Here comes the sun

E|--2--0-----2-------|----2------0--2------|----2--0-----2-----|

B|---------------3---|-------3----------0--|-----------------3-|

G|-------------------|---------------------|-------------------|

D|-------------------|---------------------|-------------------|

A|-------------------|---------------------|-------------------|

E|-------------------|---------------------|-------------------|

 

D Dsus2

and I___ say_ "It`s al- right."

E|--------------------|----2-----0---------------|

B|--3--3----3-----3---|-----------------3--------|

G|--------------------|-----------------------2//|

D|--------------------|--------------------------|

A|--------------------|--------------------------|

E|--------------------|--------------------------|

 

E|-------0--------0--------|--0--------0-------------||

B|----3--------3--------3--|--------3-----32---------||

G|/4--------2--------0-----|-----2-------------42----||

D|-------------------------|-------------------------||

A|-------------------------|-------------------------||

E|-------------------------|-------------------------||

 

SOLO

 

D Dsus2 A7sus2 A7 A7sus2 A7 A F

E|--2----0--2-----|---------------0----|-----|-----------------|

B|-----3-------0--|--2--0---2--3-----2-|-2-2-|---------------1-|

G|----------------|--------------------|-----|------------2----|

D|----------------|--------------------|-----|-------2-3-------|

A|----------------|--------------------|-----|--0-4------------|

E|----------------|--------------------|-----|-----------------|

 

C G D A7 A

E|---------|---------------|-------------|--------|-----------||

B|---------|---------------|-------------|--2--2--|-----------||

G|-------0-|-------0-------|----(rest)---|--------|-----------||

D|----2----|----0----------|-0-----------|--------|--------2--||

A|-3-------|-2-----------2-|-------------|--------|--0--4-----||

E|---------|----------3----|-------------|--------|-----------||

 

BRIDGE (?)

repeat twice

 

F C G D

Sun, sun, sun, here it comes.

E|-----------|-----------|------------------|-----|

B|--------1--|-----------|------------------|-----|

G|-----2-----|--------0--|--------0---------|-----|

D|--3--------|-----2-----|-----0------------|--0--|

A|-----------|--3--------|--2------------2--|-----|

E|-----------|-----------|------------3-----|-----|

 

then do this:

 

A7 A7sus2 A7 A7sus4 A7 A7sus4 A7 A7sus4 A7 A

E|---------------------|------------------0-|-0--0--0-----0--5-|

B|-2--2--2--2--0--2--3-|--3--3--3--2--3-----|----------3-------|

G|---------------------|--------------------|------------------|

D|---------------------|--------------------|------------------|

A|---------------------|--------------------|------------------|

E|---------------------|--------------------|------------------|

 

E|--5--5--5--5----5--|

B|-------------------|

G|-------------------|

D|-------------------|

A|-------------------|

E|-------------------|

 

VERSE 3

 

D Dsus2 D Dsus2 G G6 G

3. Little darling, I feel that ice is slow -ly melt-

E|-2------0--2-----|-----2--0-----------|---------0------------|

B|----3----------3-|------------3----0--|--(0)-3-------3---0---|

G|-----------------|--2-----------------|----------------------|

D|-----------------|--------------------|----------------------|

A|-----------------|--------------------|----------------------|

E|-----------------|--------------------|----------------------|

 

A7 A7sus2 A7 A7sus4 A7 D Dsus2 D Dsus2 G

--- ing; Lit-tle darling, it seems like years

E|----------------0------|-2-----0--2-----|------2--0----------|

B|-2--0----2--3-------3--|----3---------3-|-------------3----2-|

G|-----------------------|----------------|--2-----------------|

D|-----------------------|----------------|--------------------|

A|-----------------------|----------------|--------------------|

E|-----------------------|----------------|--------------------|

 

Gmaj7 G6 G A7 A7sus4

since its been clear

E|-2--------0-------------|-----------------------||

B|---------------3-----2--|-0-2--2---3--3--3--3---||

G|------------------------|-----------------------||

D|------------------------|-----------------------||

A|------------------------|-----------------------||

E|------------------------|-----------------------||

 

REPEAT CHORUS

 

D Dsus2 D Dsus2 D G Gmaj7 G6 Gmaj7 E7

Here comes the sun doo doo doo doo Here comes the sun

E|--2--0-----2-------|----2------0--2------|----2--0-----2-----|

B|---------------3---|-------3----------0--|-----------------3-|

G|-------------------|-2-------------------|-------------------|

D|-------------------|---------------------|-------------------|

A|-------------------|---------------------|-------------------|

E|-------------------|---------------------|-------------------|

 

D Dsus2

and I___ say_ "It`s al- right."

E|--------------------|----2-----0---------------|

B|--3--3----3-----3---|-----------------3--------|

G|--------------------|-----------------------2//|

D|--------------------|--------------------------|

A|--------------------|--------------------------|

E|--------------------|--------------------------|

 

E|-------0--------0--------|--0--------0-----------||

B|----3--------3--------3--|--------3-----32-------||

G|/4--------2--------0-----|-----2-------------42--||

D|-------------------------|-----------------------||

A|-------------------------|-----------------------||

E|-------------------------|-----------------------||

 

REPEAT CHORUS AD-LIB

 

OUTRO F6 C G

slowly

E|------0-------0-------0---------|----------------------------|

B|---3--------3------3-----32-----|--------1-------------------|

G|-4-------2------0------------42-|-----2-----------0--------0-|

D|--------------------------------|--0-----------2--------0----|

A|--------------------------------|-----------3--------2-------|

E|--------------------------------|----------------------------|

 

D/A

E|-------2-|

B|-------3-|

G|-------2-|

D|-------0-|

A|----2--0-|

E|-3-------|

 

 

...

 
 
 
     
 
 
| | | | | | | | | |
 

.net     , ,

 
24.12.2011
06.03.2004
 
 
    Internet Map Rambler's Top100

. . . .

, , ZaG

zagstudio