-
 
Guitar Pro
 
 
     
 
 

, , ,



- Toccata and Fugue in D minor

  

Guitar

 

 

E||--17p15-17----------15-13-12----|----------------------|

B||-----------------------------15-|--14----15------------|

G||--------------------------------|----------------------|

D||--------------------------------|----------------------|

A||--------------------------------|----------------------|

D||--------------------------------|----------------------|

 

 

 

---------------------------|----------------------|

---------------------------|----------------------|

--14p12-14--------9---10---|----------------------|

---------------------------|--11----12------------|

---------------------------|----------------------|

---------------------------|----------------------|

 

 

 

-------------------------|--------------------|-------------------|

-------------------------|--------------------|-------------------|

-------------------------|--------------------|-------------------|

--7p5-7----------5-3-2---|--------------------|-------------------|

-----------------------5-|--4----5------------|-------------------|

-------------------------|--------------------|--0----------------|

 

 

 

-----------0----------|---------------------|-------------------|

----------------------|---------------------|-------------------|

--------3-------------|--0------------------|--------------6----|

-----5----------------|--0--------2----4----|-------------------|

--4-------------------|--0------------------|-------------------|

----------------------|---------------------|-------------------|

 

 

 

----------------------------------------------|

------------------------6-8-5-6-8-5-6-8-5-6-8-|

--7-9-6-7-9-6-7-9-6-7-9-----------------------|

----------------------------------------------|

----------------------------------------------|

----------------------------------------------|

 

 

 

----------------------------------------|

--10-11-8-10-11-8-10-11-8-10------14----|

----------------------------------------|

----------------------------------------|

----------------------------------------|

----------------------------------------|

 

 

 

-----------------------------------13-15-12-13-15-12-13-15-12-13-15-|

--15-17-14-15-17-14-15-17-14-15-17----------------------------------|

--------------------------------------------------------------------|

--------------------------------------------------------------------|

--------------------------------------------------------------------|

--------------------------------------------------------------------|

 

 

 

--17-18-15-17-18-15-17-18-15-17------17----|

-------------------------------------------|

-------------------------------------------|

-------------------------------------------|

-------------------------------------------|

-------------------------------------------|

 

 

 

--15h18----15h18----13h17----13h17----12h15----12h15----10h13----10h13----|

--------17-------17-------15-------15-------13-------13-------11-------11-|

--------------------------------------------------------------------------|

--------------------------------------------------------------------------|

--------------------------------------------------------------------------|

--------------------------------------------------------------------------|

 

 

 

--8h12----8h12----6h10---6h10---5h8---5h8---3h6---3h6---|

-------10------10------8------8-----6-----6-----5-----5-|

--------------------------------------------------------|

--------------------------------------------------------|

--------------------------------------------------------|

--------------------------------------------------------|

 

 

Gm/5-/D

--1h5---1h5---0h3---0h3------------|------6------------|

------3-----3-----2-----2----------|------8------------|

-----------------------------------|------6------------|

------------------------------0----|------0------------|

------------------------------0----|-------------------|

-----------------------------------|-------------------|

 

 

 

--18---17-15-----------------------------15-|

-------------18-17-15-----------------17----|

----------------------18-16-18--14-18-------|

--------------------------------------------|

--------------------------------------------|

--------------------------------------------|

 

 

 

--13h15p13h15p13h15p13h15p13h15p13h15p13h15p13\12------|

-------------------------------------------------------|

-------------------------------------------------------|

-------------------------------------------------------|

-------------------------------------------------------|

-------------------------------------------------------|

 

 

Dm

--10------------------|--------------------15-------15-17----15-17-18-15-|

--10------------------|--15-17-18-15-17-18----17-18-------18-------------|

--10------------14----|--------------------------------------------------|

--0-------------------|--------------------------------------------------|

----------------------|--------------------------------------------------|

----------------------|--------------------------------------------------|

 

 

 

--17----15----------------------------------------|

-----18----17-18-15-17-14-15----------------------|

-----------------------------14-15-12-14----12----|

-----------------------------------------15----14-|

--------------------------------------------------|

--------------------------------------------------|

 

 

 

-------------------------------------------|------------------|

-------------------------------------------|------------------|

--------12---------------------------------|------------------|

--15-12----14-15-12-14-11-12-7-8-5-7---5---|------5-----------|

-------------------------------------8---7-|--8-5---7-8-5-7-4-|

-------------------------------------------|------------------|

 

 

 

---------------------------------------|------------------------------|

-----------11p6h11p6h10p5h10p5h8p3h8p3h|--10p2h10t--------------------|

---------------------------------------|---------------3-----2-----0--|

---------------------------------------|---------------3-----2-----0--|

--5------------------------------------|------------5-----0-----------|

---------------------------------------|------------------------5-----|

 

 

 

---------------------------------------|------------------------------|

-----------11p6h11p6h10p5h10p5h8p3h8p3h|--10p2h10t--------------------|

--2------------------------------------|---------------3-----2-----0--|

--2------------------------------------|---------------3-----2-----0--|

---------------------------------------|------------5-----0-----------|

---------------------------------------|------------------------5-----|

 

 

 

-----------------------------------|

-----------------------------------|

--2--------14-12-------------------|

--2--------------15-14-12----------|

--0-----------------------16-14-16-|

-----------------------------------|

 

 

 

------------------------------------------------------------------------|

-----------------------------------------------14-15--------14-15-17-18-|

--------------------12-14-12----------------14--------14-16-------------|

-----------12-14-15----------15-14-15-12-15-----------------------------|

--12-14-16--------------------------------------------------------------|

------------------------------------------------------------------------|

 

 

 

--15-17-18---------------------|---------------------------------------|

-------------------------------|-----------11p6h11p6h10p5h10p5h8p3h8p3h|

----------------3-----2-----0--|--2------------------------------------|

----------------3-----2-----0--|--2------------------------------------|

-------------5-----0-----------|---------------------------------------|

-------------------------5-----|---------------------------------------|

 

 

Fdim A

------------------------------|-------4-------------|

--10p2h10t--------------------|-------3--------2----|

---------------3-----2-----0--|--2----4--------2----|

---------------3-----2-----0--|--2----3--------2----|

------------5-----0-----------|---------------------|

------------------------5-----|---------------------|

 

 

 

----------------------15--18--|

----------------14-17---------|

--------16---14---------------|

------------------------------|

------------------------------|

------------------------------|

 

 

C#dim

--17-15-------------------------------------------|--0----------------|

--------18-17-18-17-15-14-15----------------------|-------------------|

-----------------------------17-15-14-12----------|--3----------------|

-----------------------------------------15-14-12-|--5----------------|

--------------------------------------------------|--4----------------|

--------------------------------------------------|-------------------|

 

 

T T T T

--------------------------------------------------|

--------------------------------------------------|

--6h9p6p3h6p3-6h9p6p3h6p3-6h9p6p3h6p3-6h9p6p3h6p3-|

--------------------------------------------------|

--------------------------------------------------|

--------------------------------------------------|

 

 

T T T T

--------------------------------------------------|

--------------------------------------------------|

--------------------------------------------------|

--5h8p5p2h5p2-5h8p5p2h5p2-5h8p5p2h5p2-5h8p5p2h5p2-|

--------------------------------------------------|

--------------------------------------------------|

 

 

T T T T

--------------------------------------------------|

--------------------------------------------------|

--------------------------------------------------|

--------------------------------------------------|

--4h7p4p1h4p1-4h7p4p1h4p1-4h7p4p1h4p1-4h7p4p1h4p1-|

--------------------------------------------------|

 

 

T T T T

------------------------------------------------------|

------------------------------------------------------|

------------------------------------------------------|

------------------------------------------------------|

--4h7p4p7h10p7-4h7p4p7h10p7-4h7p4p7h10p7-4h7p4p7h10p7-|

------------------------------------------------------|

 

 

A/G Dm

--------------------------------------------------|--5--------5--------|

--------------------------------------------------|--5--------6--------|

--------------------------6---6h9p6h9p6h9p6h9p6h9-|--6--------7--------|

--5h8p5h8p5h8p5h8p5h8p5h8---8---------------------|--5-----------------|

--------------------------------------------------|--------------------|

--------------------------------------------------|--------------------|

 

 

Gm A7

--3------------------|-----------------------------|

--3------------------|--5--------------------------|

--3------------------|--6--------------------------|

---------------7\-5--|--5--------------------------|

---------------------|--0--------------------------|

---------------------|---------14--15--12--14--11--|

 

 

A Dm Dsus A

---------------------------|-------1--------1--0--|-------3----1----0----|

---------------------------|--2----3--------3--3--|--2-------------------|

---------------------------|--2----2--------2--2--|--2-------------------|

---------------------------|--2----0--------0--0--|--2-------------------|

----------------------7\---|--0-------------------|--0-------------------|

--12--9--11--7--8--6--7\---|----------------------|----------------------|

 

 

Dm

--1-p--0h1p0h1p0h1p0h1p0h1p0h1-|--0p1h0p1h0p1h0-1---------||

--3----------------------------|--3-------------3---------||

--2----------------------------|--2-------------2---------||

--0----------------------------|--0-------------0---------||

--0----------------------------|--0-------------0---------||

--0----------------------------|--0-------------0---------||

 

 

...

 
 
 
     
 
 
| | | | | | | | | |
 

.net     , ,

 
24.12.2011
06.03.2004
 
 
    Internet Map Rambler's Top100

. . . .

, , ZaG

zagstudio