-
 
Guitar Pro
 
 
     
 
 

, , ,



- Menuet

 

 

Andante

 

3 2 0 4 1 1 3 2 1

| |-| |--| | | | |--|--|--|--|--| | |--| |

E|------3p2--0-----|---0-----------|--------------------|------------------|

B|--0-----------4--|-------0---1---|-----------1--0-----|------------------|

G|-----------------|---0-------2---|--------2--------2--|--0-------0-------|

D|--2--------3-----|---------------|--1--3--------------|--2----2-----2----|

A|-----------------|---------------|--2-----------2-----|-------3----------|

E|-----------------|---------------|--------------------|-------------0----|

@ | @ | @ | | | |

P

3 4 2

 

4 2

|--|---| |-------------------- 1.

| |----|--| | |--|--|--| |---| @ | @ |--|--|--|

E|-----------0-----|--3~--2--0--------|--------------------|-------------------------|

B|------1p0-----3--|------------3--1--|--0--1--3-----------|-------------------------|

G|--0--------------|------------------|--0---------0-------|--0---0------------------|

D|--2---0----------|------------3-----|----------------3---|---------3--2--1---------|

A|-----------3-----|--2---------------|------------2---5---|--0----------------------|

E|-----------------|------------------|--------------------|-------------------------|

|---|----| @ | | | | |

3 4

 

4 3 1

|------------- 2. |--|--|

@ | |--|--|--| |--| @ | |--|--|--|

E|-----------------|--7------7--5--3--|--2--3--5---------------|--3--0--3--2--0--|

B|-----------------|------------------|-----------3------------|-----------------|

G|--0--------------|--0---0-----------|---------------2--------|-----------------|

D|--5---0----------|------------------|--0---------------3--0--|--2--0-----------|

A|----------0------|------------3-----|------------------------|-----------3-----|

E|-----------------|------------------|------------------------|-----------------|

| | | | | | |--|--| | | |

MF

3

4 3 4 V||(barre) 3 1 0

|-|--| |--|--|

|-| @ |--|--|--|--|--| |-----|--|--|--| |--| | |

E|----------------------|-----------0--2--3--|--7--------8--7--5--|--3--2--0---2-------|

B|--4h5--7--0-----------|--0--2--4-----------|-----7--------4-----|----------------4---|

G|-------------------0--|--2-----------------|--------4-----------|--------------------|

D|----------1--2--3-----|--------3-----------|--------4-----------|--2-----------------|

A|--2----4--------------|--------------1-----|--------------------|------------0---2---|

E|----------------------|--------------------|--7-----------------|--------------------|

|----|--|--|--|--| |-----|-----| | | | | | |

1 3 4 1

 

 

|--------------- 1. |---------- 2.

@ @

E|--0-----------------|--0------------|

B|--------------------|---------------|

G|--------------------|---------------|

D|--2--------2--3-----|--2------------|

A|--------2-----------|-----2---------|

E|-----0--------------|--------0------|

| |--|--|--| |--|--|

 

TAB EXPLANATION

 

@-half note

 

|-quater note

 

|----|\\ sixteenth note

|----|/

 

h-hammer on

 

p-pull off

 

~ -vibrato

 

F-forte

 

MF-messio forte

 

V||(barre)-7th fret barre

 

0,1,2,3,4-left hand fingers

 

Have somebody any Sepultura solos?

You can use my tab intervals,but to best playing just take the notes.

Novgorod The Great,Russia,24.03.02,Thrash.

 

 

 

...

 
 
 
     
 
 
| | | | | | | | | |
 

.net     , ,

 
24.12.2011
06.03.2004
 
 
    Internet Map Rambler's Top100

. . . .

, , ZaG

zagstudio