-
 
Guitar Pro
 
 
     
 
 

, , ,



- - 4

 

 

 

 

E||---7--10h7----7-----------|-------------------------------|

B||-----------7----7-----7---|-------------------------------|

G||*-----------------7-----7-|---------4-7-4-6-4-6-4---6-9-6-|

D||*--9----------------------|--9----4---------------8-------|

A||-----------9--------------|-------------------------------|

E||------------------10------|--7----7---7---7---7---6---6---|

 

 

--------7--10h7----7-----------|-------------------7-----|

----------------7----7-----7---|----------------------0--|

--7--------------------7-----7-|-------7--7--7--7-----7--|

-----9--9----------------------|--9-------9-----9--6-----|

--7-------------9--------------|-------9-----7-----------|

-----7-----------------10------|--7----------------------|

 

 

-----------------------10-----|-------------------------------------------|

-----------7--7--7--7--0---7--|--7h8h7----------10----9----9-------9-12-9-|

--7h9h7/6-----7-----7------7--|--6-----9-----11----11---11---11-10--------|

--7--------7-----6------------|--------6--11------------------------------|

--------7---------------------|-------------------------------------------|

------------------------------|-----------9---------------------9---------|

 

 

-----------------------------------------9-------|

--10----10-------10----------12------------------|

-----11----11-11----11-10-11----11-10-11---11-10-|

--------------11----------9----------------------|

--9-----------------------------------11---------|

-------------------------------------------------|

 

 

-----10----------10-9-----9---------------------------||

-----------------------12----10-9----10--9h10h9-7-----||

--11----11-10-11------------------11-----7-----------*||

--------------9-----12----11----9----7---------------*||

--11--------------------------------------------9-----||

------------------------------------------------------||

 

 

---2--5h2----2----------|-------------0-----5--3-2-|

----------2----2----2---|-------1--0-----4---------|

*----------------2----2-|--------------------------|

*--4--------------------|--4----4-----2------------|

----------4-------------|-------------------6------|

-----------------5------|--2-----------------------|

 

 

--3--0-----7-----------------|-------------------------------|

--------8----8-5--8h5----5---|-----------7---5---5-----5-8-5-|

--------9-------------6----6-|---------7---7---7---7-6-------|

--2--------------------------|--7----7---0---0---0-----------|

---------------7------7------|-----------------------4---4---|

-----------------------------|--5----5-----------------------|

 

 

----------------------------5-----|----7-------7-5---5---0---2--0-2-0-|

--7-5-7-5---7-------8-------------|----------0---5-8---7---3----------|

----------7---7-6-7---7-6-7---7-6-|--7---7-6-7-------2---0------2-----|

--0---4---7-------5-------4-------|--------------------------4--------|

----------------------------------|--7--------------------------------|

----------------------------------|-----------------------------------|

 

 

-------------------10-----|--------0--0--0--0--0--9--0--|

--3----7--7--7--7------7--|--7h8h7----------------------|

--2-------7-----7------7--|--7-----6-----6-----6-----6--|

-------7-----7-----7------|-----------4-----4-----8-----|

--------------------------|-----------------------------|

--------------------------|-----------------------------|

 

 

-------------7--10-7-------------7h5-----|------------------------------------|

----------0----------10--8-----------8h7h|--5--0------8h7h5-----5h8h5---------|

--9h-11h9-7--------------9---------------|-------0----------7h5-------5h4h5h4-|

--11-----------------------9-------------|---------2------------------5-------|

-----------------------------10----------|------------------------7-----------|

-----------------------------------------|------------------------------------|

 

 

----------------------------|--------------------7--2--0-------------||

--------2----------2-5--3-2-|--3--0h2h3h5h2--3h2-7--0--0-3-2-3-0-----||

--3-----------4--3---3------|--4-------------4-------------3--------*||

-----4--5--4----------------|----------------------------------4----*||

----------------------------|----------------------------------------||

----------------------------|----------------------------------------||

 

 

 

 

...

 
 
 
     
 
 
| | | | | | | | | |
 

.net     , ,

 
24.12.2011
06.03.2004
 
 
    Internet Map Rambler's Top100

. . . .

, , ZaG

zagstudio