-
 
Guitar Pro
 
 
     
 
 

, , ,



- AIR from Orchestral Suite No. 3

BWV 1068

 

Transcribed for guitar by A. Melikidze

 

 

E||---0-----0-----0-----0-----|--0--5------------------------|

B||---1-----1-----1-----1-----|--1----6-3---0-1-0------------|

G||*--0-----0-----2-----2-----|--2--------5-----0----2-0-----|

D||*--------------------------|-----3---4---0---0------0-----|

A||---3--3--2--2--0--0--------|---------5--------------------|

E||---------------------3--3--|--1----------2---3--3---1--1--|

 

 

--3---------3-----0---------3-1-|--1--------0-1---------------1-0-|

------------------------3-2-----|-----3-1-3-----3---3-----1-0-----|

-----3-2-3----3-2---3-2---------|--2--2---2-------0---2-0---------|

-----2---0--0---2---------------|--0--0-----------0---------------|

----------------4---4---0---0---|---------3---3---2---2-----------|

--0-----------------------------|-------------------------3---3---|

 

_________________________________

| 1

--0--------2-3--------0---------|------------------------------------||

--1--------3---1----3-----3---1-|--0-----0-1----0--------------------||

--0--------0---0--5---0-2---2---|--0-2-2----------2-0---------------*||

---------------2--4---------0---|--0---2-----0--0---0-------0-3-2-0-*||

--3--3--2--2---0--0-------------|------3-----0------2-0-2-3----------||

------------------------2-------|--3------------2---3----------------||

 

_________________________

| 2

----------------------------||---------------------3-------0-------|

--0-----0-1----0------------||---0-----0-1-0---0-------2-3---------|

--0-2-2----------2-0--------||*--0-----0-----2---0---2-3-----2-3---|

--0---2-----0--0---0--------||*--0-----0---------------2---0---5-3-|

------3-----0------2--------||---------------------------------5---|

--3------------2---3--------||---3--3--1-----1-----0---------------|

 

 

------5-----3-1-0-1-------0---------|--------------------0-1-------0--|

--------------2---3---------3-1-0---|------0-----1-3-------0-------0--|

--2---0-------2---2-----2---------2-|--1-2---------------5---2-1-2----|

--2-3-------------0--0--------------|------0-2-3-2-3-0-2---0----------|

--4-----7-4---0---------3-------3---|--2-3-2---0-----0-------3-2-3----|

----------0-------------------------|------------------4-----------4--|

 

 

--------------------------------|----------0-----5----------3-2-|

--3-1-0---0-1-3-1-0-------------|--1-----1---3-1-7--------------|

--2-----2-2-----1---2-----2-----|--2-----0---0------------0-----|

--2---0---0-----0---2-----2-----|--0-----2-4-2---0--0-2-4-------|

--0-----3-----------0--0--------|--0--------------------3---3---|

------1---------0---------3--3--|--2--2--0---0------------------|

 

 

--0---3----------------------------|-------------0--------------1-0-|

----3-----------0-1-0--------------|--1--------0-1-3-3--0---0-1-0---|

--0-----0--2--2-----0----2-0-------|--0--2-3-2---2---2----2-----0---|

-----------2--0-----0------0---0---|----------------------------0---|

--2-----2--3---------------2-3---2-|-----3--------------------------|

--------------2-----3--3---1---1---|--0--0---1---1---2--2---3---3---|

 

 

-------------3-1-1---------------|----------------1-1---0---0----1-3-|

--5--2-0-2-3-5---3-2-3-----------|------------0-3-----3-0-1-1--------|

--4----------6---2-----2---2-----|--0-----0-0---0---0-------0--------|

-----2-----------0-----------3---|--0---3---2---0--------------------|

---------0---0-----------3-----3-|--2-2-2-------2---3---3---1--1-----|

--4--4---------------------------|----------3------------------------|

 

 

----------0-3-6-5-----------|------1-----------------0-1-1-0-----|

--1-----1----------------1--|--0-3-3-----------3-1-3-----------3-|

--0-----0-------------------|------2---2-0-2---0---4-----0---2---|

--2--0--2-------------------|--0---0-3-3---3-2-0---5---------3---|

--0--0----------3-----------|----------3---3---2---------3-------|

--------3---3---1--1--0--0--|----------------------3---------1---|

 

 

-------------------------------------||

--1-0-----0----0-1-0-1-0-1-1---------||

--0---2-----5--------------0--------*||

--2---------3--0-----------2--------*||

---------------------------3---------||

--3-----1---3--3---------------------||

 

 

...

 
 
 
     
 
 
| | | | | | | | | |
 

.net     , ,

 
24.12.2011
06.03.2004
 
 
    Internet Map Rambler's Top100

. . . .

, , ZaG

zagstudio