Аккорды для всех - сайт народных аккордов
 
Аккорды и тексты песен
Guitar Pro табулатуры
Уроки игры на гитаре
Таблица аккордов
Бесплатные программы для музыкантов
Фотографии музыкантов
Видеоклипы
Каталог ссылок
Обратная связь
На главную страницу
 
 
     
 
 

Аккорды, песни, текст, табулатура



Ария -  Тореро 


Вступление и проигрыш после каждого куплета:
E|--------------------------------------------------|
B|--------------------------------------------------|
G|--------------------------------------------------|
D|--------------------------------------------------|
A|-7-9-10-7-9-10-5-7-9-5-7-9-3-5-7-3-5-7-2-3-2-3-2--|
E|-0-------------0-----------0-----------0----------|

E|------------------------|
B|------------------------|
G|------------------------|
D|--------9-7-----7-5-----|
A|-7-9-10---0-9-5-0---7-3-|
E|-0----------------------|

E|------------------------------------------------------------|
B|------------------------------------------------------------|
G|--------------------7-6-4---------------------7-6-4---------|
D|-----2-5-4------5---5---------------------5---5-------9-9-9-|
A|-3-------5-2----7---------9-9-9-10-7-9----7---------7-7-7---|
E|-----------0--------------7-7-7---------------------0-0-0---|

Em            D
Эй, торреро, жизнь как миг.
C                H
Опять звучит трубы призывный зов.
Em            D
Эй, торреро, ты или бык?
C           H
Качается чаша весов.

   C     Am     H    C             H A H
   Бог хранит тебя, смерть щадит тебя.
   C     (Am)     H   C        (Am)    H
   Неба белый платок, кровь и желтый песок
   Крик отчаянья, бык живая мишень.
   Под восторженный вой ты играешь судьбой
   Пусть незнает никто, что творится в душе.

Эй, торреро, сын вдовы.
Твой красный плащ, твой траурный покров.
Эй, торерро, ты будешь убит
Под песню мадридских часов.

   припев:

 

 

 
 
 
     
 
 
 

инженеров.netДомашняя страницаНезависимый морской сайтПортал для гитаристовПриколы, юмор, анекдоты

 
обновлен 24.12.2011
в сети с 06.03.2004
 
 
Неофициальный морской сайт Домашняя страница Яндекс цитирования Internet Map Rambler's Top100
Учет посещений на народе

все тексты песен являются собственностью их автора. песени взяты из открытых источников. на сайте размещены с целью ознакомления. при использовании материалов сайта ссылка на сайт обязательна.

по всем вопросам стучитесь в асю или пишите на электропочту

идея, дизайн, редактирование Леха ZaG Загрядский

zagstudio