Аккорды для всех - сайт народных аккордов
 
Аккорды и тексты песен
Guitar Pro табулатуры
Уроки игры на гитаре
Таблица аккордов
Бесплатные программы для музыкантов
Фотографии музыкантов
Видеоклипы
Каталог ссылок
Обратная связь
На главную страницу
 
 
     
 
 

Аккорды, песни, текст, табулатура



Pink Floyd - Sorrow


INTRO:
E|--------------------------------------------------|
B|--------------------------------------------------|
G|--------------------------------------------------|
D|--------------------------------------------------|
A|---------------------5/7-7vvvvvv--7/975vvvvvvvv-|
E|---/0vvvvvvvvvvv----------------------------------|

E|--------------------------------------|
B|--------------------------------------|
G|--------------------------------------|
D|--------------------------------------|
A|------2/5-5vvvvvvv--------------------|
E|----3-----------------/0/vvvvvvvvvvv-|

E|-------------------------------------------------------------|
B|-------------------------------------------------------------|
G|-------------------------------------------------------------|
D|-------------------------------------------------------------|
A|-5/7-7vvvv---7/975vvvv---2/5-(3)>5-0vvvvvv----------------|
E|-------------------------3---------------------/0vvvvvvvvvv-|

E|-------------------------------------------------------------|
B|-------------------------------------------------------------|
G|-------------------------------------------------------------|
D|-------------------------------------------------------------|
A|--5/7-7vvvvvvvv--7/975vvvvv-------2/5-5vvvvv--5/7-7vvvvvvv-|
E|--------------------------------3----------------------------|

E|-------------------------------------------------|
B|-------------------------------------------------|
G|-------------------------------------------------|
D|-------------------------------------------------|
A|---7/975vvvvvvv--------2/5(3)>5--5vvvvvvvvvv---|
E|--------------------3----------------------------|

E|-------------------------|
B|-------------------------|
G|-----------"9"\/\-----|
D|-------------------------|
A|-------------------------|
E|-/0vvvvvvvvvvvvvvvvvvvvv-|

E|---------------------|
B|---------------------|
G|---------------------|
D|---------------------|
A|---------------------|
E|---///////0vvvvvvvvv-|

    Em
E|------------------------------|
B|------------------------------|
G|----------------------------7-|
D|----0----------------------7-|
A|----0----------------------5-|
E|------------------------------|

guitar 2;       ----|
--------------------| <---   play over the D5 chord, it's
---("0")>"3">("-4")-|        a harmonic at the third fret,
--------------------|        but depress the bar first, so
--------------------|        it sounds like your going up to
--------------------|        it, than dive w/bar to fret -4.

D/E                               C/E           EM2
E|-"12">("10)----------------------------------|
B|-------/3>(1)--"12""7"/"12"-----------------| <- this is 2
G|-------/2>(0)--"12""7"/"12"-----------------|  guitars. You
D|-------/0>(-2)-------------------------------|  can probably
A|---------------------------------------------|  figure out
E|-----------------------------3/6--0vvvvvvvv-|  the arangment
   one bar between chord changes.
   v
D/E   Em2
E|----------------------|
B|-15--15>(17)======>15-|<-- 2 guitars, same as above. The bend
G|------7---------------|    is gradually released.
D|------7---------------|
A|------5---------------|
E|----------------------|

Verse 1:

Em
Sweet smell of great sorrow lies over the land,
D/E
Plumes of smoke rise, and merge into the leaden sky,
C/E
A man lies and dreams, of green fields and river,
  Em
But awakes to the morning, with no reason for waking.

Fill 1
              D/E
E|---------------------------------------------------|
B|---0-------7------ <-- sustain into the D/E chord.-|
G|-----------7---------------------------------------|
D|-----------7---------------------------------------|
A|---------------------------------------------------|
E|---------------------------------------------------|

Em
He's haunted by the memory of a lost paradise, (Play Fill A)

Bridge:

One word, one soul.
Time pass, river roll.

E|------------------------------------|
B|------------------------------------|
G|----------------------------------4-|
D|-5------5--7------5--------5------4-|
A|-5------5--7------5--------5------2-|
E|-3------3--5------3--------7--------|

E|-----------------------2--|
B|-5---------------------3--| <- swell in w/ volume control on
G|-6---------------------4--|    all simile.
D|--------------------------|
A|--------------------------|
E|--------------------------|

E|-----/17vvvv----------2--/17vvvvv----------------------------|
B|--5-------------------3--------------- <- two guitars again!-|
G|--6-------------------4--------------------------------------|
D|-------------------------------------------------------------|
A|-------------------------------------------------------------|
E|-------------------------------------------------------------|

E|-/17vvvvvvv-------------2--/12vvvvvvvv--|
B|--5---------------------3---------------|  <- three guitars!
G|--6---------------------4---------------|
D|---------"7">("5")>"7"-----/-/-/-----|  <- slight feedback
A|----------------------------------------|     (harmonic only)
E|----------------------------------------|

E|----------------------------------2----------------|
B|---/10vvvv-5----------------------3----------------|
G|-----------6----------------------4----------------|
D|--("7")-------("5")/"7"vvvvvvv--------------------|
A|------------------------------------//////0---vvvv-|
E|---------------------------------------------------|

Verse 3:
(hold low E till "dedication", than dive out w/bar)

Em
And he talks to the river, of lost love and dedication,
D/E
Slient replies, that swirl invitation,
C/E
Flow dark and troubled, to an oily sea,
Em                     D/E         Em D/E
A grim intmation, of what is to be.

E|-------------------------------------------------------------|
B|----------------------------------------------------0---7---|
G|-----------------------------------------------0----0---7---|
D|------------------0--2-----0--0-------------------------7---|
A|-------------------------------------------------------------|
E|---------------------------------0vvvvvvv--------------------|

            Em
There's an unceasing wind, that blows through this night,
        D/E
There's dust in my eyes, it blinds my sight, (Play Fill D)
    C/E
And silence that speaks so much louder than words, (Play Fill D)
   Em
Of promises broken.

SOLO:
E|------------------------------------0-0-0-0--0--0--0--0vvvv-|
B|----------------------------------3/5-5-5-5--5--5--0--0vvvv-|
G|-7/97--(2)>4-(-3)>4vvvvvvv>2>0---------------------------|
D|-7/97-----------------------------------------------------|
A|-5/75-----------------------------------------------------|
E|------------------------------------------------------------|

E|--0-----------0---0---0---0---------------------------------|
B|--0----2>3>2--0---0---0---0---------------------------------|
G|-----------------------------'2'>'3'>'2'vvvvv--2>0--2vvvvvv-|
D|------------------------------------------------------------|
A|------------------------------------------------------------|
E|------------------------------------------------------------|

E|-------------------------------------------------------------|
B|-------------------------------------------------------------|
G|---------------------------------------------------9-7vvvvvv-|
D|-/2--5--/0---5--2>0------5-------------------------9-7vvvvvv-|
A|---------------------2>0-----2>0----------------/7-----------|
E|-----------------------------------3--0vvvvvvvv--------------|

E|---------------------0---------------------------------------|
B|-/0--------------3/5---5vvvvv--------------------------------|
G|-----2>(4)>2vvvv---------------2-/-/vvvvvv---2--2/4>0-2vvv-|
D|-------------------------------------------------------------|
A|-------------------------------------------------------------|
E|-------------------------------------------------------------|

E|----------------------------------------------------0-|
B|-----------------------------------------------3/5----|
G|-0>2--2vvvv----2>3>2>0--2--0>2vvvv/vvvvv>0-----------|
D|------------------------------------------------------|
A|------------------------------------------------------|
E|------------------------------------------------------|

E|-0-5>0-0-3>0-0-5>0-0-3>0-0-5>0-0--3---2--2-/-/-/-/-vvvvv-|
B|----------------------------------5---3--3-/-/-/-/-vvvvv-|
G|-------------------------------------------------------------|
D|-------------------------------------------------------------|
A|-------------------------------------------------------------|
E|-------------------------------------------------------------|

E|-------0-----------------------------------------------------|
B|-(3)>5---3>0-------------------------------------------------|
G|-------------2>(3)>2>0-----2---------------------------------|
D|------------------------2------2----0>2>0--------------------|
A|-------------------------------------------------------------|
E|--------------------------------------------5---0vvvvvvvvvv-|

E|----------12-14-15-17>(19)vv-17>(19)>17>15-17>(19)>17>15-17v-|
B|-15>(17)----------------------------------------------------|
G|-------------------------------------------------------------|
D|-------------------------------------------------------------|
A|-------------------------------------------------------------|
E|-------------------------------------------------------------|

E|-17>(19)vvvvvvv--15-17vvvvvv--0--0-----0--------------------|
B|-------------------------------0--3/5---5------53>0---------|
G|-------------------------------------------------------2>(4)-|
D|-------------------------------------------------------------|
A|-------------------------------------------------------------|
E|-------------------------------------------------------------|

E|-------------------------------------------------------------|
B|-------------------------------------------------------------|
G|-2>(4)>2>0-----2>0-------------------------------------------|
D|------------2-------2--0--2----------------------------------|
A|--------------------------------0----------------------------|
E|-----------------------------3-----3---0---0----/////0vvvvvv-|

E|----------------------------/5--0----------------------------|
B|----------------------------/5-----5vvvvvv--8--8vvvv--7--7>8-|
G|-2>(4)---'0'vvvvv------------------------------7vvvv---------|
D|-------------------2vvvvvv-----------------------------------|
A|-------------------------------------------------------------|
E|-------------------------------------------------------------|

E|------------------------------------------------------------|
B|-8>(10>8>7-----8>7------------------------------------------|
G|------------9-------9>7---9>7----------2>0------------------|
D|--------------------------------97>5------2>0--------------|
A|-------------------------------------------------5>(7)vvvv-|
E|------------------------------------------------------------|

E|-------------------12-14-15-15>(17)vvvvv-15-14>(12)-15vvvvvv-|
B|-15>(17)=====>(15)-------------------------------------------|
G|-------------------------------------------------------------|
D|-------------------------------------------------------------|
A|-------------------------------------------------------------|
E|-------------------------------------------------------------|

E|--14>12----------------12------------------------------------|
B|---------15vvvvvvvvv--------------15-------------------------|
G|--------------------------14>(16)-----14vvvvvv---4---2vvvvvv-|
D|-------------------------------------------------------------|
A|-------------------------------------------------------------|
E|-------------------------------------------------------------|

E|------------------------------------------------|
B|---------------------------------7-------/8---0-|
G|---------------------------------7--------------|
D|-2---2---2>0----2vvvvvvvv>0------7--7--0--------|
A|------------------------------------------------|
E|------------------------------------------------|

E|------------------------------------------------------|
B|-15>(17)vvvvvvv>15>12--14>(15)>12---------------------|
G|-------------------------------------14>(16)>14---12-|
D|------------------------------------------------------|
A|------------------------------------------------------|
E|------------------------------------------------------|

E|----14vvvvvvv-14>(15)>14>12-14vvvvv/vvvvvv-12-14-15-15>17vv-|
B|-12----------------------------------------------------------|
G|-------------------------------------------------------------|
D|-------------------------------------------------------------|
A|-------------------------------------------------------------|
E|-------------------------------------------------------------|

E|-15>(17)--15--14>12--14>(15)========>14>12---12--------------|
B|-------------------------------------------15--15>(17)vvvvv-|
G|-------------------------------------------------------------|
D|-------------------------------------------------------------|
A|-------------------------------------------------------------|
E|-------------------------------------------------------------|

E|---------------------------------------|
B|-----15VVVVvvvvvvvv-15>(17)>VVVVVVVVVV-|
G|-14------------------------------------|
D|---------------------------------------|
A|---------------------------------------|
E|---------------------------------------|

E|-------------------------------------------------------------|
B|----0--------------------------------------------------------|
G|---------12-/-/-14>(16)vvvvv-/12-14-14>(16)>14--12---------|
D|------14----------------------------------------------14vvv-|
A|-------------------------------------------------------------|
E|-12----------------------------------------------------------|

E|--------------------0-0---------0---0---0--------------------|
B|--------------------0-0-3/5-3>0-0---0---5--------------------|
G|-0-'2'vvvv-0>2vvvvv------------------------2>0---------------|
D|-----------------------------------------------2>0----2vvvvv-|
A|-------------------------------------------------------------|
E|-------------------------------------------------------------|

E|--------------------------------------------------------|
B|--------------------------------------------------------|
G|-0------------------------------------------------------|
D|----2>0--------------------0>2--0>2--5>2--5/7--7vvvvvvv-|
A|--------2>0----5----------------------------------------|
E|------------3-----3---0---------------------------------|

E|-------------------------------------------------|
B|-------------------------------------------------|
G|-------0-------2>(3)>2>0---2>0-------------------|
D|-0--2-----0>2--------------------2/42--0vvvvvvv-|
A|-------------------------------------------------|
E|-------------------------------------------------|

E|-----12------12------12------11-------12vvvvvvvv-|
B|-15>(17)-15>(17)-15>(17)-14>(16)--15>(17)vvvvvvv-| <-- unison
G|-------------------------------------------------|     bends
D|-------------------------------------------------|
A|-------------------------------------------------|
E|-------------------------------------------------|

E|----12vvvvv-----12vvvv-----14vvv--------------|
B|15>(17)vvvv-15>(17)vvv-17>(19)vv-19>(20)vvvvv-|
G|----------------------------------------------|
D|----------------------------------------------|
A|----------------------------------------------|
E|----------------------------------------------|

E|---------------------|
B|-19>(20)vvvv-19>(20)-|
G|---------------------|
D|---------------------|
A|---------------------|
E|---------------------|

E|-----17vvvv-----17vvvvvv-----17------17------17--|
B|-20>(22)vvv-20>(22)vvvvv-20>(22)-20>(22)-20>(22)-|
G|-------------------------------------------------|
D|-------------------------------------------------|
A|-------------------------------------------------|
E|-------------------------------------------------|

E|-----17------17---------19-|
B|-20>(22)-20>(22)-20>(22)---|
G|---------------------------|
D|---------------------------|
A|---------------------------|
E|---------------------------|

E|-19vvvvv--19vvvvvvvvvvv--------------------------|
B|--------------------------------------------------|
G|-----------------------------2>(3)>2>0------------|
D|-----------------------------------------2vvvvvvv-|
A|--------------------------------------------------|
E|--------------------------------------------------|

E|----0--------------------------------------------------------|
B|-------12-VVVVVVV-------------------------------------------|
G|/9-----12-VVVVVVV--7----------------------------------------|
D|-------12-VVVVVVV--7--7>(8)>7>5-7vvvv-----------------------|
A|---------------------------------------7-7-------------5-----|
E|-------------------------------------------5>(6)>5-3-0---3-0-|

E|-------------------------------------------------------------|
B|-----------------------------------------------------------7-|
G|-------------------------------------------------7--9--7-9---|
D|-2--2--4--4/5--4--'5'--5/7--5--4--7/9vvvv---7--9-------------|
A|-------------------------------------------------------------|
E|-------------------------------------------------------------|

E|--------------------------------------------|
B|-8>7>5----5>3>0---3>0-----------------------|
G|--------7-------2---------------------------|
D|-----------------------2>0--5--2>0----------|
A|-------------------------------------2------|
E|----------------------------------------3/5-|

Fills:
------

Fill A
E|----------------|
B|-7--------------|
G|---7-----7vvvvv-|
D|------9---------|
A|----------------|
E|----------------|

Fill B
E|----------|
B|----------|
G|----------|
D|----------|
A|----------|
E|-103--0-|

Fill C
E|-----------|
B|-----------|
G|-----------|
D|-----2-----|
A|-----------|
E|2/3------3-|

Fill D
E|----------|
B|----------|
G|----------|
D|-----0----|
A|1/2-------|
E|--------0-|

 

 

 
 
 
     
 
 
 

инженеров.netДомашняя страницаНезависимый морской сайтПортал для гитаристовПриколы, юмор, анекдоты

 
обновлен 24.12.2011
в сети с 06.03.2004
 
 
Неофициальный морской сайт Домашняя страница Яндекс цитирования Internet Map Rambler's Top100
Учет посещений на народе

все тексты песен являются собственностью их автора. песени взяты из открытых источников. на сайте размещены с целью ознакомления. при использовании материалов сайта ссылка на сайт обязательна.

по всем вопросам стучитесь в асю или пишите на электропочту

идея, дизайн, редактирование Леха ZaG Загрядский

zagstudio