Аккорды для всех - сайт народных аккордов
 
Аккорды и тексты песен
Guitar Pro табулатуры
Уроки игры на гитаре
Таблица аккордов
Бесплатные программы для музыкантов
Фотографии музыкантов
Видеоклипы
Каталог ссылок
Обратная связь
На главную страницу
 
 
     
 
 

Аккорды, песни, текст, табулатура



NOFX – champs elysees

 

 

Album: so long and thanks for all the shoes

 

x - scratch

: - let ring

 

 

intro

 

guitar 1

 

|-----------------------------------------------------------------|

|-----------------------------------------------------------------|

|-5-x-x-5-5-5-5--10-x-x-10-10-10-10--7-x-x-7-7-7-7--7-x-x-7-7-7-7-|

|-5-x-x-5-5-5-5--10-x-x-10-10-10-10--7-x-x-7-7-7-7--7-x-x-7-7-7-7-|

|-3-x-x-3-3-3-3---8-x-x--8--8--8--8--5-x-x-5-5-5-5--5-x-x-5-5-5-5-|

|-----------------------------------------------------------------|

 

guitar 2

 

|----------------------------------------------------------------------|

|----------------------------------------------------------------------|

|----------------------------------------------------------------------|

|-10:--9:--7:--5:--10-10-10-10-10-10-9-9-9-9-9-9-7-7-7-7-7-7-7-7-7-7-5-|

|----------------------------------------------------------------------|

|----------------------------------------------------------------------|

 

pre-verse

 

|------------------|

|------------------|

|-5:--5:--------5--|

|-5:--5:--7-7-9-5--|

|-3:--3:--7-7-9-3--|

|---------5-5-7----|

 

chorus

 

|-------------------------------------------------------------------------

|-------------------------------------------------------------------------

|-5-5-5-5---------------------------------------------------------5-5-5-5-

|-5-5-5-5-5-5-5-5-7-7-7-7-5-5-5-5-3-3-3-3-2-2-2-2-3-3-3-3-5-5-5-5-5-5-5-5-

|-3-3-3-3-5-5-5-5-7-7-7-7-5-5-5-5-3-3-3-3-2-2-2-2-3-3-3-3-5-5-5-5-3-3-3-3-

|---------3-3-3-3-5-5-5-5-3-3-3-3-1-1-1-1-0-0-0-0-1-1-1-1-3-3-3-3---------

 

 -------------------------------------------------|

 -------------------------------------------------|

 ---------5-5-5-5-5-5-5-5---------5-5-5-5-------5-|

 -5-5-5-5-5-5-5-5-5-5-5-5-5-5-5-5-5-5-5-5-7-7-9-5-|

 -5-5-5-5-3-3-3-3-3-3-3-3-5-5-5-5-3-3-3-3-7-7-9-3-|

 -3-3-3-3-----------------3-3-3-3---------5-5-7---|

 

bridge

 

|------------------------------|

|------------------------------|

|------------------------5---5-|

|-3-3-5-5-10-9-7-3-3-5-5-5-5-5-|

|-3-3-5-5-10-9-7-3-3-5-5-3-5-3-|

|-1-1-3-3--8-7-5-1-1-3-3---3---|

 

lyrics

 

you know french? well someone did cause they sent me the lyrics

and here they are...

 

Je m'baladais sur l'avenue

Le coeur ouvert р l'inconnu

J'avais envie de dire bonjour р n'importe qui

N'importe qui et ce fut toi

Je t'ai dit n'importe quoi

Il suffisait de te parler

Pour t'apprivoiser

 

Aux Champs ╔lysщes

Aux Champs ╔lysщes

Au soleil ou sous la pluie

midi ou р minuit

Il y a tout ce que vous voulez

Aux Champs ╔lysщes

 

Tu m'as dit j'ai rendez-vous

Dans un sous-sol avec des fous

Qui vivent la guitare р la main

Du soir au matin

Alors je t'ai accompagnщe

On a chantщ on a dansщ

Et on a mъme pas pensщ

s'embrasser

 

Aux Champs ╔lysщes

Aux Champs ╔lysщes

Au soleil ou sous la pluie

midi ou р minuit

Il y a tout ce que vous voulez

Aux Champs ╔lysщes

 

Aux Champs ╔lysщes

Aux Champs ╔lysщes

Au soleil ou sous la pluie

midi ou р minuit

Il y a tout ce que vous voulez

Aux Champs ╔lysщes

 

 

 

 

 

 
 
 
     
 
 
 

инженеров.netДомашняя страницаНезависимый морской сайтПортал для гитаристовПриколы, юмор, анекдоты

 
обновлен 24.12.2011
в сети с 06.03.2004
 
 
Неофициальный морской сайт Домашняя страница Яндекс цитирования Internet Map Rambler's Top100
Учет посещений на народе

все тексты песен являются собственностью их автора. песени взяты из открытых источников. на сайте размещены с целью ознакомления. при использовании материалов сайта ссылка на сайт обязательна.

по всем вопросам стучитесь в асю или пишите на электропочту

идея, дизайн, редактирование Леха ZaG Загрядский

zagstudio