Аккорды для всех - сайт народных аккордов
 
Аккорды и тексты песен
Guitar Pro табулатуры
Уроки игры на гитаре
Таблица аккордов
Бесплатные программы для музыкантов
Фотографии музыкантов
Видеоклипы
Каталог ссылок
Обратная связь
На главную страницу
 
 
     
 
 

Аккорды, песни, текст, табулатура



Limp Bizkit - Faith


Intro:

 H(VII) (идёт такой проигрыш, не могу описать его, надо слушать)

Verse:


                           H(VII)
Well, I guess it would be nice,
            H(VII)
If I could touch your body,
                 A(V)
I know not everybody,
                    H(VII)
Has got a body like me,
But I gotta think twice,
Before I give my heart away,
And I know all the games you play,
Cause I play them too,

Prechorus:

e|-----------------------------------------------------------|
B|---------------------------------------------5-------------|
G|-----8-------6-------7-------4------6----------------4---3-|
D|-------9-------7-------8-------5------7--------6-------5---|
A|---9-------7-------8-------5------7--------6-------5-------|
E|-7-------5-------6-------3-------5-------4-------3---------|

E|----------|
B|---------5|
G|-3h4p3-4--|
D|----------|
A|----------|
E|----------|

Oh, but I need some time off from that emotion,
Time to pick my heart up off the floor,
When that love comes down without devotion,
Well it takes a strong man, baby, but I'm showing you that door


Chorus:

e|--------------------------|
B|--------------------------|
G|--------------------------|   x4
D|-9-9--9-9--9-9--9-9-------|
A|-9-9--9-9--9-9--9-9-------|
E|-7-7--7-7--7-7--7-7--7h9p7|

I gotta have faith

Verse:

Baby, I know you're asking me to stay,
Saying please please please don't go away,
Cause you're giving me the blues,
Baby, you remind me of the words you say,
Can't help but think of yesterday,
And I know you would tie me down to the loverboy blues,

Pre-Chorus:

Before this river becomes an ocean,
Before you pick my heart up off the floor,
When that love comes down without devotion,
Well, it takes a strong man baby but I'm showing you that door

Chorus:

I gotta have faith

N.C.
Get the fuck up!

Chorus:

I gotta have faith!

 

 

 
 
 
     
 
 
 

инженеров.netДомашняя страницаНезависимый морской сайтПортал для гитаристовПриколы, юмор, анекдоты

 
обновлен 24.12.2011
в сети с 06.03.2004
 
 
Неофициальный морской сайт Домашняя страница Яндекс цитирования Internet Map Rambler's Top100
Учет посещений на народе

все тексты песен являются собственностью их автора. песени взяты из открытых источников. на сайте размещены с целью ознакомления. при использовании материалов сайта ссылка на сайт обязательна.

по всем вопросам стучитесь в асю или пишите на электропочту

идея, дизайн, редактирование Леха ZaG Загрядский

zagstudio